PrimaNota.ru - самый крупный в мире бесплатный архив песенных текстов, аккордов, табулатур и нот


Libertines - Fame And Fortune - аккорды и текст, видео

Регистрация Запомнить меня
Войти через:  Facebook Google Twitter Vk Yandex Mail.ru

Libertines - Fame And Fortune - аккорды и текст, видео

Печатать
Просмотров: 104
Fame And Fortune
Libertines
-------------------------------------------------------------------------------
                    FAME AND FORTUNE - The Libertines
-------------------------------------------------------------------------------
The new Libertines is out!
I tried my best with this, and even though I posted as chords, I included some leads 

This is how I play the chords used:
    Gm  A#  D#  Am  A   D   A7
e|--3---6---6---5---5---5---5-------|
B|--3---6---8---5---5---7---5-------|
G|--3---7---8---5---6---7---6-------|
D|--5---8---8---7---7---7---5-------|
A|--5---8---6---7---7---5---7-------|
E|--3---6-------5---5-------5-------|

On the verses, I believe this is what Pete plays during the D# A# D# A# progressions:
     D#                 A#
e|---8-8-8--8-8-8--8-8--6--------|
B|---8-8-8--8-8-8--8-8----6------|
G|---8-8-8--8-8-8--8-8------7~---|X2
D|-------------------------------|
A|-------------------------------|
E|-------------------------------|


Now the song is here:
Intro:            Gm          A#         D#        A#    D#         A#     Am A D
e|----------------3--3--3-----3-3--3-3----------------------------------------------|
B|-------------------------3-----------3--4--6--4--3-3---3--4--6--4--3-3------------|
G|-----------------------------------------------------3-----------------3--5---7---|
D|----------------------------------------------------------------------------7-----|
A|----------------------------------------------------------------------------------|
E|--0-2-0-3-0-----------------------------------------------------------------------|

       Gm          A#         D#        A#    D#         A#     Am A D 
e|-----3--3--3-----3-3--3-3----------------------------------------------|
B|--------------3-----------3--4--6--4--3-3---3--4--6--4--3-3------------|
G|------------------------------------------3-----------------3--5-6-7---|
D|-----------------------------------------------------------------------|
A|-----------------------------------------------------------------------|
E|-----------------------------------------------------------------------|

Verse1:
Gm               A#          D#                  A#
Seeking fame and fortune, we walk the streets of London 
D#              A#        Am  A    D
Looking for the crossroads e-very-where
Gm                    A#
Hold up in squats in tears bars
          D#                      A#
There's a slasher on the Holloway boulevard
D#                        A#     Am A D
Screaming monkey, monkey, monkey everywhere

Chorus:
        A#        D#                 A#       
Like tin soldiers responding to the call
   D#             A#     D
To Camden we will crawl, one and all
A#   Gm          D#               A#
Ohhhh,   down to Thrash and Lordy Lord
   D#          A#     D
By icons we're lured, one and all

Riff:
       Gm          A#         D#        A#    D#         A#     Am A D 
e|-----3--3--3-----3-3--3-3----------------------------------------------|
B|--------------3-----------3--4--6--4--3-3------4--6--4--3-3------------|
G|------------------------------------------3-----------------3--5-6-7---|
D|-----------------------------------------------------------------------|
A|-----------------------------------------------------------------------|
E|-----------------------------------------------------------------------|

Verse2:
Gm               A#       D#              A#                   
Seeking fame and fortune, all they say's: come on then
     D#              A#           Am   A   D
I'll meet you in the shadows by Roche-ster square
    Gm                 A#
The deal was done, the trade was rough
D#                 A#
Dublins down for a dubble bluff
D#                      A#
Dipp your quill in your bleeding heart
       Am        A        D
Sign there and there and there

Chorus
        A#        D#                 A#       
Like tin soldiers responding to the call
   D#             A#     D
To Camden we will crawl, one and all
A#   Gm          D#               A#
Ohhhh,   down to Thrash and Lordy Lord
   D#          A#     D
By icons we're lured, one and all

Riff:
       Gm          A#         D#        A#    D#         A#     Am A D 
e|-----3--3--3-----3-3--3-3----------------------------------------------|
B|--------------3-----------3--4--6--4--3-3------4--6--4--3-3------------|
G|------------------------------------------3-----------------3--5-6-7---|
D|-----------------------------------------------------------------------|
A|-----------------------------------------------------------------------|
E|-----------------------------------------------------------------------|

Bridge (Slow strumming pattern)
Gm              A#            D#                 A#
Oh they were as boys, tell me what then did they know
D#          A#               A7             D
What was it they learned and where did they go
    Gm            A#           D#           A#
Now listen to the voice of the city morning air
          D#          A#               A7         D
If you're looking for something that's never been there


Verse3:
          Gm               A#      D#                     A#
If you're seeking fame and fortune walk in the streets of London
D#              A#         Am A D
Looking for the crossroads everywhere
  Gm            A#      D#               A#
Hold on to your dreams, however bleak it seems
    D#            A#              Am   A   D
The world may not listen but the devil may care

Chorus:        A#        D#         A#       
Like tin soldiers responding to the call
   D#             A#     D
To Camden we will crawl, one and all
A#   Gm          D#               A#
Ohhhh,   down to Thrash and Lordy Lord
   D#          A#     D
By icons we're lured, one and all

Outro:
      D#7  F#7 D#7 D7  D#7  F#7  D#7 D 
e|----6~-/-9--\-6--5~---6~-/-9--\-6--5-5-5-5-5--|
B|----8~-/-11-\-8--7~---8~-/-11-\-8--7-7-7-7-7--|
G|----6~-/-9--\-6--5~---6~-/-9--\-6--7-7-7-7-7--|
D|----8~-/-11-\-8--7~---8~-/-11-\-8--7-7-7-7-7--|
A|----6~-/-9--\-6--5~---6~-/-9--\-6--5-5-5-5-5--|
E|----------------------------------------------|
Добавлено: 29.02.2016
Другие материалы по этой песне:
  • Аккорды и текст

Страница создана 29.02.2016
http://primanota.ru/libertines/fame-and-fortune-chords.htm
Привет, Гость.
Предлагаем пройти революционный курс по гитаре.
Подарок от PrimaNota.Ru, забирай!