PrimaNota.ru - самый крупный в мире бесплатный архив песенных текстов, аккордов, табулатур и нот


Liars Academy - Brick Wall Will Always Win - таба, видео

Регистрация Запомнить меня
Войти через:  Facebook Google Twitter Vk Yandex Mail.ru

Liars Academy - Brick Wall Will Always Win - таба, видео

Печатать
Просмотров: 85
Hey. This song is great. I was surprised that there was no tab for this song so i 
to tab it out myself. Hope u like it :)

~ = Let Ring
. = Palm Mute

Verse 1

|---------------------------0--0-0-0-0--0-0---0---0--0--0--0---0--0-|
|---------------------------0--0-0-0-0--0-0---0---0--0--0--0---0--0-|
|-------------------------------------------------------------------|
|-7~-7-7~-7-7—-7~-7-7~-7-7—-9~-9-9-9-9~-9-9—-10~-10-10-10-10~-10-10-|
|-7~-7-7~-7-7—-7~-7-7~-7-7—-9~-9-9-9-9~-9-9—-10~-10-10-10-10~-10-10-|
|-7~-7-7~-7-7—-7~-7-7~-7-7—-9~-9-9-9-9~-9-9—-10~-10-10-10-10~-10-10-|

|---------------------------0--0-0-0-0--0-0---0---0--0--0--0--0-0-0-|
|---------------------------0--0-0-0-0--0-0---0---0--0--0--0--0-0-0-|
|-------------------------------------------------------------9-9-9-|x2
|-7~-7-7~-7-7—-7~-7-7~-7-7—-9~-9-9-9-9~-9-9—-10~-10-10-10-10~-9-9-9-|
|-7~-7-7~-7-7—-7~-7-7~-7-7—-9~-9-9-9-9~-9-9—-10~-10-10-10-10~-7-7-7-|
|-7~-7-7~-7-7—-7~-7-7~-7-7—-9~-9-9-9-9~-9-9—-10~-10-10-10-10~-------|

Chorus

|--------------------------------------------------------|
|--------------------------------------------------------|
|-----0~----0~------0~----0~------0~----0~------0~----0~-|
|---4~------------5~------------7~------------9~---------| x2
|-2~------2~----3~------3~----5~------5~----7~------7~---|
|--------------------------------------------------------|

Verse 2

|---------------------------0--0-0-0-0--0-0---0---0--0--0--0---0--0-|
|---------------------------0--0-0-0-0--0-0---0---0--0--0--0---0--0-|
|-------------------------------------------------------------------|
|-7~-7-7~-7-7—-7~-7-7~-7-7—-9~-9-9-9-9~-9-9—-10~-10-10-10-10~-10-10-|
|-7~-7-7~-7-7—-7~-7-7~-7-7—-9~-9-9-9-9~-9-9—-10~-10-10-10-10~-10-10-|
|-7~-7-7~-7-7—-7~-7-7~-7-7—-9~-9-9-9-9~-9-9—-10~-10-10-10-10~-10-10-|

|---------------------------0--0-0-0-0--0-0---0---0--0--0--0--0-0-0-|
|---------------------------0--0-0-0-0--0-0---0---0--0--0--0--0-0-0-|
|-------------------------------------------------------------9-9-9-|x2
|-7~-7-7~-7-7—-7~-7-7~-7-7—-9~-9-9-9-9~-9-9—-10~-10-10-10-10~-9-9-9-|
|-7~-7-7~-7-7—-7~-7-7~-7-7—-9~-9-9-9-9~-9-9—-10~-10-10-10-10~-7-7-7-|
|-7~-7-7~-7-7—-7~-7-7~-7-7—-9~-9-9-9-9~-9-9—-10~-10-10-10-10~-------|

Chorus

|--------------------------------------------------------|
|--------------------------------------------------------|
|-----0~----0~------0~----0~------0~----0~------0~----0~-|
|---4~------------5~------------7~------------9~---------| x2
|-2~------2~----3~------3~----5~------5~----7~------7~---|
|--------------------------------------------------------|


(Not quite sure what you would call this part, but it's after the 2nd chorus)

|----------------------------------------------------------------|
|----------------------------------------------------------------|
|----------------------------------------------------------------|
|-5-5-5-5-5-5-5-------------------5-5-5-5-5-5-5------------------|
|-3-3-3-3-3-3-3-0-5-5-5-5-5-5-5-0-3-3-3-3-3-3-3-0-3-3-3-3-3-3-3--|
|---------------0-5-5-5-5-5-5-5-0---------------0-3-3-3-3-3-3-3--|
  . . . . . . . . . . . . . . . . . . . . . . . . . . . . . . .

|----------------------------------------------------------------|
|----------------------------------------------------------------|
|----------------------------------------------------------------|
|-5-5-5-5-5-5-5-------------------5-5-5-5-5-5-5------------------|
|-3-3-3-3-3-3-3-0-5-5-5-5-5-5-5-0-3-3-3-3-3-3-3-0-3-3-3-3-3-3-3--|
|---------------0-5-5-5-5-5-5-5-0---------------0-3-3-3-3-3-3-3--|

|---------------------|
|---------------------|
|-----0~-----0---0----| x3
|---9~-----7~------7--|
|-7~-----5~----5------|
|---------------------|

|------------------------------|
|------------------------------|
|-5~--5-5-5-5-5-5-5-5-5-5-5-5--|
|-5~--5-5-5-5-5-5-5-5-5-5-5-5--|
|-3~--3-3-3-3-3-3-3-3-3-3-3-3--|
|------------------------------|
          . . .

|---------------------------0--0-0-0-0--0-0---0---0--0--0--0---0--0-|
|---------------------------0--0-0-0-0--0-0---0---0--0--0--0---0--0-|
|-------------------------------------------------------------------|
|-7~-7-7~-7-7—-7~-7-7~-7-7—-9~-9-9-9-9~-9-9—-10~-10-10-10-10~-10-10-|
|-7~-7-7~-7-7—-7~-7-7~-7-7—-9~-9-9-9-9~-9-9—-10~-10-10-10-10~-10-10-|
|-7~-7-7~-7-7—-7~-7-7~-7-7—-9~-9-9-9-9~-9-9—-10~-10-10-10-10~-10-10-|

|---------------------------0--0-0-0-0--0-0---0---0--0--0--0--0-0-0-|
|---------------------------0--0-0-0-0--0-0---0---0--0--0--0--0-0-0-|
|-------------------------------------------------------------9-9-9-|x2
|-7~-7-7~-7-7—-7~-7-7~-7-7—-9~-9-9-9-9~-9-9—-10~-10-10-10-10~-9-9-9-|
|-7~-7-7~-7-7—-7~-7-7~-7-7—-9~-9-9-9-9~-9-9—-10~-10-10-10-10~-7-7-7-|
|-7~-7-7~-7-7—-7~-7-7~-7-7—-9~-9-9-9-9~-9-9—-10~-10-10-10-10~-------|


|----|
|----|
|----| x2
|-7~-|
|-7~-|
|-7~-|

|----------------------------------|
|---5~------5~--------------5~-----|
|-----5~------5~-5-7-7-9-------5~--|
|----------------x-x-x-x-----------|
|-0~------3~-----3/5-5/7--3~-------|
|----------------------------------|

|-----------------------------------|
|---5~------5~--------------5~------|
|-----5~------5~-5-7-7-9-------5~-0-|
|----------------x-x-x-x------------|
|-0~------3~-----3/5-5/7--3~--------|
|-----------------------------------|

Chorus

|--------------------------------------------------------|
|--------------------------------------------------------|
|-----0~----0~------0~----0~------0~----0~------0~----0~-|
|---4~------------5~------------7~------------9~---------| x2
|-2~------2~----3~------3~----5~------5~----7~------7~---|
|--------------------------------------------------------|


|----------------------------------------------------------------|
|----------------------------------------------------------------|
|----------------------------------------------------------------|
|-5-5-5-5-5-5-5-------------------5-5-5-5-5-5-5------------------|
|-3-3-3-3-3-3-3-0-5-5-5-5-5-5-5-0-3-3-3-3-3-3-3-0-3-3-3-3-3-3-3--|
|---------------0-5-5-5-5-5-5-5-0---------------0-3-3-3-3-3-3-3--|
  . . . . . . . . . . . . . . . . . . . . . . . . . . . . . . .

|----------------------------------------------------------------|
|----------------------------------------------------------------|
|----------------------------------------------------------------|
|-5-5-5-5-5-5-5-------------------5-5-5-5-5-5-5------------------|
|-3-3-3-3-3-3-3-0-5-5-5-5-5-5-5-0-3-3-3-3-3-3-3-0-3-3-3-3-3-3-3--|
|---------------0-5-5-5-5-5-5-5-0---------------0-3-3-3-3-3-3-3--|

|--------------------|
|---8-8-8-8-8-6-5----|
|-5---------------5--|(For this section repeat as many times needed)
|--------------------|
|--------------------|
|--------------------|
Добавлено: 23.03.2012
Вам также может быть интересно:
Другие материалы по этой песне:
  • Аккорды и текст

Страница создана 23.03.2012
http://primanota.ru/liars-academy/brick-wall-will-always-win-chords.htm
Привет, Гость.
Предлагаем пройти революционный курс по гитаре.
Подарок от PrimaNota.Ru, забирай!