PrimaNota.ru - самый крупный в мире бесплатный архив песенных текстов, аккордов, табулатур и нот


Liam Lynch - The United States Of Whatever - аккорды и текст, таба, бас-таба, видео

Регистрация Запомнить меня
Войти через:  Facebook Google Twitter Vk Yandex Mail.ru

Liam Lynch - The United States Of Whatever - аккорды и текст, таба, бас-таба, видео

Печатать
Просмотров: 221
The United States Of Whatever
Liam Lynch
крутая песня (если это можно назвать песней)  почему до сих пор никто не подобрал

проигрыш/вступление:
E|------------------------------------------------------------|
B|------------------------------------------------------------|
G|------------------------------------------------------------|
D|------------------------------------------------------------|
A|------------------------------------------------------------|
D|----0-0-3-5-5-5-5-5-3-0-3-5-5-5-5-5-3-0-3-5-5-5-5-5-3-0-3-5-|

припев:
E|------------------------------|
B|------------------------------|
G|--3-3-3-3-3-3----5-5-5-5-5-5--|
D|--3-3-3-3-3-3----5-5-5-5-5-5--|
A|--1-1-1-1-1-1----3-3-3-3-3-3--|
D|------------------------------|

текст:

Whatever 

I Went Down To The Beach and Saw Kiki,
She Was Like Eehh,
And I'm Like Whatever 

Whatever 

куплет:

Then This Chick Comes Up To me,
She's All Like Hey Arent You that Dude
And I'm like Yeah Whatever 

So later, I'm, I'm At The Pool Hall,
And This Girl Comes Up And Shes Like Uuhh,
And I'm Like Yeah Whatever 

припев:

Cause This Is My United States Of Whatever  (x3)

куплет:

Then It's Three A.M., I'm on The Corner Whereing My Leather,
This Dude Comes Up He's Like Hey, Punk 
And I'm like Yeah, Whatever 

Then I'm Throwin' Dice In the Alley,
Then Officer Leroy Comes Up And He's Like Hey. i Thought I Told You..
And I'm Like Yeah Whatever 

Then Up Comes Zapho,
I'm like Yo Zapho What's Up
He's Like Nothin' 
And I'm Like Thats Cool.

припев:

Cause this Is My United States Of Whatever  (x5)
Добавлено: 11.12.2013
Другие материалы по этой песне:

Страница создана 29.02.2012
http://primanota.ru/liam-lynch/the-united-states-of-whatever-chords.htm
Привет, Гость.
Предлагаем пройти революционный курс по гитаре.
Подарок от PrimaNota.Ru, забирай!