PrimaNota.ru - самый крупный в мире бесплатный архив песенных текстов, аккордов, табулатур и нот


Lhasa De Sela - Desdenosa - аккорды и текст, видео

Регистрация Запомнить меня
Войти через:  Facebook Google Twitter Vk Yandex Mail.ru

Lhasa De Sela - Desdenosa - аккорды и текст, видео

Печатать
Просмотров: 66
Desdenosa
Lhasa De Sela
Bass tab and chords for the whole thing

intro
     Eb    Abm        Eb    Abm     Ab     Dbm  Abm Eb Abm DbM     Abm Eb7                            
e-|-----------------|------------|--------------|----------------|--------| 
B-|-----------------|------------|--------------|----------------|--------| 
G-|-----------------|------------|--------------|----------------|--------| 
D-|-----------------|------------|--------------|----------------|--------| 
A-|-----6-----------|----6-------|----3--6-4--7-|---------4--4~6-|--------| 
E-|--6-----4--7---5-|-6-----4--7-|--4-----------|-4--6--4--------|--4--6--| 

verse 
     Dbm              Eb    Abm    Abm     DbM    Eb         Eb7                 
e-|-----------------|------------|--------------|----------------|--------| 
B-|-----------------|------------|--------------|----------------|--------| 
G-|-----------------|------------|--------------|----------------|--------| 
D-|-----------------|------------|--------------|----------------|--------| 
A-|--4---7---4------|----6-------|---3-4--7--4--|----6-----------|--------| 
E-|--------------5--|-6-----4--7-|-4-----------5|--6-------------|--------|
                                                      ---es enfinito...

     Abm    Dbm       Eb    Abm    Abm     DbM    Eb     Abm                     
e-|-----------------|------------|--------------|----------------|--------| 
B-|-----------------|------------|--------------|----------------|--------| 
G-|-----------------|------------|--------------|----------------|--------| 
D-|-----------------|------------|--------------|----------------|--------| 
A-|-------4---7---4-|----6-------|---3-4--7--4--|----6-----------|--------| 
E-|-4--7-----------5|-6-----4--7-|-4-----------5|--6-----4-----7-|--------|
                                                     
Chorus

    Abm    Dbm       Eb    Abm    Ab      DbM    Eb                          
e-|-----------------|------------|--------------|----------|--------| 
B-|-----------------|------------|--------------|----------|--------| 
G-|-----------------|------------|--------------|----------|--------| 
D-|-----------------|------------|--------------|----------|--------| 
A-|-------4---7---4-|----6-------|---3-4--7--4-5|-6--------|--------| 
E-|-4--7-----------5|-6-----4--7-|-4------------|----------|--------|
--Desdenosa...

                    Abm          Eb            Abm    Ab      DbM    Eb                          
e-|---------------|------------|-------------|-------|--------------|------| 
B-|---------------|------------|-------------|-------|--------------|------| 
G-|---------------|------------|-------------|-------|--------------|------| 
D-|---------------|------------|-------------|-------|--------------|------| 
A-|---------------|------------|---6-------6-|-------|---3-4--7-4-5-|-6----| 
E-|---------------|--4---7-4-5-|-6------6----|-4--7--|-4------------|------|
No necesito amar..

then repeat

-----------------------------------------------
                              Dbm
Aunque mi vida esté de sombras llena,
 Eb                  Abm
No necesito amar, no necesito...
Abm                           Dbm
Yo comprendo que amar es una pena 
Eb                         Eb7
Y que una pena de amor, es infinito...

   Abm                       Dbm
Y no necesito amar, tengo vergüenza 
   Eb                       Abm
De volver a querer lo que he querido. 
Abm                      Dbm
¡Toda repetición es una ofensa
 Eb                     Abm
y toda su expresión es un olvido!

 Abm                       Dbm
Desdeñosa, semejante a los dioses,
Eb                        Abm
Yo seguiré luchando por mi suerte,
 Ab                      Dbm
Sin escuchar las espantadas voces
Eb                            Eb7
De los envenenados por la muerte...

           Abm              Eb
No necesito amar. ¡Absurdo fuera
 Eb                       Abm                   
Repetir el sermón de la montaña!
 Ab                       Dbm
¡Por eso he de llevar hasta que muera,
Eb
Todo el odio inmortal que me acompaña!


play intro, but faster 


repeat verse and chorus


coda:

these three chords played like in intro: 

Eb Abm Eb

end by strumming each chord once:

Abm Eb Abm
Добавлено: 24.12.2015
Другие материалы по этой песне:
  • Аккорды и текст

Страница создана 26.09.2014
http://primanota.ru/lhasa-de-sela/desdenosa-chords.htm
Привет, Гость.
Предлагаем пройти революционный курс по гитаре.
Подарок от PrimaNota.Ru, забирай!