PrimaNota.ru - самый крупный в мире бесплатный архив песенных текстов, аккордов, табулатур и нот


Lexington Band - Prisla - таба, видео

Регистрация Запомнить меня
Войти через:  Facebook Google Twitter Vk Yandex Mail.ru

Lexington Band - Prisla - таба, видео

Печатать
Просмотров: 65
-------------------------------------------------------------------------------
                             SONG NAME - Band Name
-------------------------------------------------------------------------------
Tabbed by:
E-mail:

Intro

e|----0-----------------0-0h1-0----------0--1-1h3-1-0--3----------------------|
B|----1-----1----1---3----------------3----------------3---1-0----------------|
G|----0---0-----0-0------------------------------------0--------2--0----------|
D|----2------------------------------------------------0----------------------|
A|----3------------------------------------------------2----------------------|
E|----0--------------0---------------------------------3----------------------|

e|----0-----------------0-0h1-0----------0--1-1h3-1-0--3----------------------|
B|----1-----1----1---3----------------3----------------3----------------------|
G|----0---0-----0-0------------------------------------0----------------------|
D|----2------------------------------------------------0----------------------|
A|----3------------------------------------------------2----------------------|
E|----0--------------0---------------------------------3----------------------|


Solo :

e|-----------------------10-12-13-12h13r12--10----------10--10---10--12------|
B|----13--13--13--13--13------------------------13------------13---------13--|
G|---------------------------------------------------------------------------|
D|---------------------------------------------------------------------------|
A|---------------------------------------------------------------------------|
E|---------------------------------------------------------------------------|

e|--10-----------------------------------------------------------------------|
B|------13-12-10-------------------------------------------------------------|
G|---------------12----------------------------------------------------------|
D|---------------------------------------------------------------------------|
A|---------------------------------------------------------------------------|
E|---------------------------------------------------------------------------|




************************************

| /   slide up
| \   slide down
| h   hammer-on
| p   pull-off
| ~   vibrato
| +   harmonic
| x   Mute note
| b   Bend
| pb  Pre-bend
| br  Bend release
| pbr Pre-bend release
| brb Bend release bend

************************************
Добавлено: 19.05.2016
Вам также может быть интересно:
Другие материалы по этой песне:
  • Аккорды и текст

Страница создана 19.05.2016
http://primanota.ru/lexington-band/prisla-chords.htm
Привет, Гость.
Предлагаем пройти революционный курс по гитаре.
Подарок от PrimaNota.Ru, забирай!