PrimaNota.ru - самый крупный в мире бесплатный архив песенных текстов, аккордов, табулатур и нот


Lewis E Jones - There Is Power In The Blood - таба, видео

Регистрация Запомнить меня
Войти через:  Facebook Google Twitter Vk Yandex Mail.ru

Lewis E Jones - There Is Power In The Blood - таба, видео

Печатать
Просмотров: 25
-------------------------------------------------------------------------------
                             power in the blood - Lewis E. Jones
-------------------------------------------------------------------------------
Hey everyone! You may notice that some tabs have certain capo, such as 4 or 5 or even 2.
Well you really do not have to do that, you see capo only makes it that key. so you 
really don't need a capo. But if you want it a certain key then you either learn it in 
that key or capo it. 
key of Ab
Tuning:E-A-D-G-B-e

e|---------------------------------------------------------------------------------|
B|---------------------------------------------------------------------------------|
G|------------------------------------------------1-------0---3---3---3-----3--1---|
D|----1----1--1----1----1----1---3--3---3--1--1---1-------1---1---1---1---1--------|
A|----3----3--3----3----3----3---4--4---4--3-3--------------------------1------3---|
E|---------------------------------------------------------------------------------|
    would you be free from your burden of sin   there's power in the blood    power
e|---------------------------------------------------------------------------|
B|--1--1----1----------------------------------------------------------------|
G|-------------0------------------------------------1------0--0--0----3---1--|
D|--1--1----1-1--1-----1---1---1--1-1--3-3-3--1--1---------1--1--1----0------|
A|---------------3-----3---3---3--3-3--4-4-4--3-3---3---------------------3--|
E|---------------------------------------------------------------------------|
   in the blood would you o'er evil a victory win there's wonderful power in 
e|---------------------------------------------------------------------------|
B|---------------------------------------------------------------------------|
G|--0-----1-----1------------------------------------------------------------|
D|------------1--------------------------------------------------------------|
A|--1-----3-3----------------------------------------------------------------|
E|---------------------------------------------------------------------------|
   the blood
e|---------------------------------------------------------------------------|
B|-----------------1-----1----------------------------------------------1----|
G|------------1---------------3-1----1-------------0--1----3---1---3---------|
D|--------1--------1-----1----1-1----1---3-----1-----------0-------0----1----|
A|--------3---3--------------------------4-----3---1--3--------3-------------|
E|---------------------------------------------------------------------------|
chorus: there is power power wonder working power in the blood of the lamb 
e|---------------------------------------------------------------------------|
B|------------1-----1------------------------------------2-----1-------------|
G|-------1---------------3--1----1------------0--1---3-------------3---3----1|
D|---1--------1-----1----1--1----1--3----1-----------0---1-----1---3---3----1|
A|---3---3--------------------------4----3----1--3---------------------------|
E|---------------------------------------------------------------------------|
   there is power power wonder working power in the precious blood of the lamb 
************************************

| /   slide up
| \   slide down
| h   hammer-on
| p   pull-off
| ~   vibrato
| +   harmonic
| x   Mute note
| b   Bend
| pb  Pre-bend
| br  Bend release
| pbr Pre-bend release
| brb Bend release bend

************************************
Добавлено: 28.12.2015
Другие материалы по этой песне:
  • Аккорды и текст

Страница создана 28.12.2015
http://primanota.ru/lewis-e-jones/there-is-power-in-blood-chords.htm
Привет, Гость.
Предлагаем пройти революционный курс по гитаре.
Подарок от PrimaNota.Ru, забирай!