PrimaNota.ru - самый крупный в мире бесплатный архив песенных текстов, аккордов, табулатур и нот


Leviathan - Within Thrall - таба, видео

Регистрация Запомнить меня
Войти через:  Facebook Google Twitter Vk Yandex Mail.ru

Leviathan - Within Thrall - таба, видео

Печатать
Просмотров: 100
Leviathan - Within Thrall
from the album Scar Sighted
drop Bb tuning  Bb F Bb Eb G C

Intro 
c---5^------------------------5^--4^----|
G---6^------------------------6^--5^----|
Eb--7^---------4-3------------7^--6^----|
Bb--7^---------6-5------------7^--6^----|   x2
F---5^---------6-5------------5^--4^----|
Bb--0^---7-8---6-5----8-0---------------|

c-----------------------------------------------------------|
G-----------------------------------------------------------|
Eb-----------2tr5-2tr3--------------------------------------|
Bb---------------------2tr5-2tr3----------------------------|  x2
F---0~~~--------------------------0~~~--1~~--0~~0h1p-0-0----|
Bb-------------------------------------------------------6--|

c------------------------------------------|
G------------------------------------------|
Eb-----------------------------------------|
Bb-----------------------------------------| x4
F-------------------------5p4p0~4p3p0~-----|
Bb---0~~~~--6~7~6~-------------------------|

c-----------------------------------------------------------|
G-----------------------------------------------------------|
Eb-----------2tr5-2tr3--------------------------------------|
Bb---------------------2tr5-2tr3----------------------------|  x2
F---0~~~--------------------------0~~~--1~~--0~~0h1p-0-0----|
Bb-------------------------------------------------------6--|

c------------0---------------0-------|   |---\
G----------6---6-----------6---6-----|   |---|
Eb-------7-------7-------7-------7---|   |---|
Bb-----0-----------0---0-----------0-|x8 |---|
F------------------------------------|   |-0-|
Bb---0---------------6---------------|   |-0-|

c-------------------------------------------------------------------|
G-------------------------------------------------------------------|
Eb------------------------------------------------------------------|
Bb--0-0-0-0-0-0-0-0-6-6-6-6-3-3-6-6-0-0-0-0-0-0-0-0-6-6-6-6-7-7-6-6-| x4
F---0-0-0-0-0-0-0-0-6-6-6-6-3-3-6-6-0-0-0-0-0-0-0-0-6-6-6-6-7-7-6-6-|
Bb--0-0-0-0-0-0-0-0-6-6-6-6-3-3-6-6-0-0-0-0-0-0-0-0-6-6-6-6-7-7-6-6-|

c-------------------------------------------------|
G-------------------------------------------------|
Eb------------------------------------------------|
Bb--7~-5~-8~-5~-7~-5~-8~-5~-7~-5~-8~-5~--8~--10~--|
F----------------------------------------8~--8~~--|
Bb-------------------------------------------8~~--|

c-------------------------------------------------------------------|
G-------------------------------------------------------------------|
Eb------------------------------------------------------------------|
Bb--0-0-0-0-0-0-0-0-6-6-6-6-3-3-6-6-0-0-0-0-0-0-0-0-6-6-6-6-7-7-6-6-| x4
F---0-0-0-0-0-0-0-0-6-6-6-6-3-3-6-6-0-0-0-0-0-0-0-0-6-6-6-6-7-7-6-6-|
Bb--0-0-0-0-0-0-0-0-6-6-6-6-3-3-6-6-0-0-0-0-0-0-0-0-6-6-6-6-7-7-6-6-|

c-------------------------------------------------|
G-------------------------------------------------|
Eb------------------------------------------------|
Bb--7~-5~-8~-5~-7~-5~-8~-5~-7~-5~-8~-5~--8~--10~--| x2
F----------------------------------------8~--8~~--|
Bb-------------------------------------------8~~--|

c------------0---------------0-------|    |-----------|
G----------6---6-----------6---6-----|    |-----------|
Eb-------7-------7-------7-------7---|    |-----------|
Bb-----0-----------0---0-----------0-|x16 |-0---7--6--|
F------------------------------------|    |-0---7--6--|
Bb---0---------------6---------------|    |-0---7--6--|

c-------------------------------------------------|    
G-------------------------------------------------|     
Eb------------------------------------------------|    
Bb--7~-5~-8~-5~-7~-5~-8~-5~-7~-5~-8~-5~--8~--10~--| x2  
F----------------------------------------8~--8~~--|     
Bb-------------------------------------------8~~--|     

c-------------------------------------------------------------|
G-------------------------------------------------------------|
Eb------------------------------------------------------------|
Bb-8-4-5--5-5-7-7-7-7-8-8-8-8-7-7-7-7-5-5-5-5-7-7-7-7-8-8-8-8-| repeat and fade out
F--8-4-5--5-5-5-5-5-5-5-5-5-5-5-5-5-5-5-5-5-5-5-5-5-5-5-5-5-5-|
Bb-8-4-5--5-5-5-5-5-5-5-5-5-5-5-5-5-5-5-5-5-5-5-5-5-5-5-5-5-5-|

Добавлено: 18.12.2015
Вам также может быть интересно:
Другие материалы по этой песне:
  • Аккорды и текст

Страница создана 18.12.2015
http://primanota.ru/leviathan/within-thrall-chords.htm
Привет, Гость.
Предлагаем пройти революционный курс по гитаре.
Подарок от PrimaNota.Ru, забирай!