PrimaNota.ru - самый крупный в мире бесплатный архив песенных текстов, аккордов, табулатур и нот


Leviathan - Vexed And Vomit Hexed - таба, видео

Регистрация Запомнить меня
Войти через:  Facebook Google Twitter Vk Yandex Mail.ru

Leviathan - Vexed And Vomit Hexed - таба, видео

Печатать
Просмотров: 124
Band   Leviathan
Album: Tentacles Of Whorror
Song: Vexed and Vomit Hexed

Copyright (c)  Moribund Records
Version 1.0 - 16/11/2007

Transcribed By: Elathen
Email:          ningalia87@yahoo.com


.  - palm mute           /  - slide up to
\  - slide down to       ~  - vibrato

h  - hammer on           b  - Bend
p  - pull off            Suffixes for bend
t  - tap                 f  - full bend    h - half bend
ph - pinched harmonic    q  - quarter bend t - tap bend
*  - see comment         ^  - Hold bend    r release bend
x  - Stuccatto           ~  - vibrato bend
,  - slight palm mute    () - ghost note, sustained note
"  - tremolo note        <> - Trill
\

Tuning E A D G B E


Riff 1
|-------------------------------------------------------|
|-------------------------------------------------------|
|-------------------------------------------------------|
|---9-----10--------9-----13------12--------------------|
|---7------8--------7-----11------10--------------------|
|---7------8--------7-----11------10--------------------|

Riff 2
|----------------------------------------------------------------|
|----------------------------------------------------------------|
|----------------------------------------------------------------|
|----------------------------------------------------------------|
|----------------------------------4"-------3"-------------------|
|-----0"-----3"--------2"----------------------------------------|

Riff 3
|----------------------------------------------|-----------------------------|
|----------------------------------------------|-----------------------------|
|------------------------5"--------------------|--------------------6"-------|
|------------------------5"--------------------|--------------------6--------|
|---6"---------5"--------3"--------------------|------6"------5"----4--------|
|---4"---------3"--------3---------------------|------4"------3--------------|

Riff 4
|-------------------------------------------------------------------|
|-------------------------------------------------------------------|
|-------------------------------------------------------------------|
|-------------------------------------------9-------12-----6--------|
|--3"----1"-----3"----3"-2"----1"-----------9-------12-----6--------|
|-------------------------------------------7-------10-----4--------|

Play Riff 1
Play riff 3
play riff 1
Play Riff 2

Riff 5 - Fill 1
|-------------------------------------------------|
|-------------------------------------------------|
|-------------------------------------------------|
|---5-----9-----8------10-------------------------|
|---5-----7-----6------8--------------------------|
|---3-----7-----6------8--------------------------|


Riff 6 - Break
|-------------------------------------------------------------|
|-------------5----------------5--------------5---------------|
|-------6---------------6---------------7---------------------|
|--0-------------0----------------0---------------------------| gtr 1
|-------------------------------------------------------------|
|------------------------------------------------------------ |

|-------------------------------------------------------------|
|-------------------------------------------------------------|
|-------------------------------------------------------------|
|–0-0---------------------------------------------------------| gtr 2
|-------2-2----0-0--------------------------------5-5---------|
|-------------------3--3---2-2--------0-------0---------------|
Riff 7a
|---------------------------------------------------------|
|---------------------------------------------------------|
|---------------------------------------------------------|
|---6-------5---6-----5-----------8------11-------5-------|
|---4-------3---4-----3-----------8------11-------5-------|
|---------------------------------6------9--------3-------|

Riff 7b
|------------------------------------------------|
|------------------------------------------------|
|---6----7-------6---------9-----10--------------|
|---4----5-------4---------9-----10--------------|
|---4----5-------4---------7------8--------------|
|------------------------------------------------|

-----------------------------------|
-----------------------------------|
-----------------------------------|
--8------11---------5--------------|
--8------11---------5--------------|
--6------9----------3--------------|

Ok that's most of the tab, except for the weird reverb riff that's next, but riff 6 (gtr 
is played underneath it until the end. Please rate.
Добавлено: 13.03.2012
Другие материалы по этой песне:
  • Аккорды и текст

Страница создана 13.03.2012
http://primanota.ru/leviathan/vexed-and-vomit-hexed-chords.htm
Привет, Гость.
Предлагаем пройти революционный курс по гитаре.
Подарок от PrimaNota.Ru, забирай!