PrimaNota.ru - самый крупный в мире бесплатный архив песенных текстов, аккордов, табулатур и нот


Leviathan - Requiem For A Turd World - таба, видео

Регистрация Запомнить меня
Войти через:  Facebook Google Twitter Vk Yandex Mail.ru

Leviathan - Requiem For A Turd World - таба, видео

Печатать
Просмотров: 99
Band   Leviathan
Album: Tentacles Of Whorror
Song: Requiem For a Turd World

Copyright (c)  Moribund Records
Version 1.0 - 14/11/2007

Transcribed By: Elathen
Email:          ningalia87@yahoo.com


.  - palm mute           /  - slide up to
\  - slide down to       ~  - vibrato

h  - hammer on           b  - Bend
p  - pull off            Suffixes for bend
t  - tap                 f  - full bend    h - half bend
ph - pinched harmonic    q  - quarter bend t - tap bend
*  - see comment         ^  - Hold bend    r release bend
x  - Stuccatto           ~  - vibrato bend
,  - slight palm mute    () - ghost note, sustained note
"  - tremolo note        <> - Trill
\

Tuning E A D G B E


Riff1 - Intro
|---------------------------------------------------------------------|
|---------------------------------------------------------------------|
|---------------------------------------------------------------------|
|--------------------------------------------------3"-----2"----------|
|---7"-----6"------3"-----7"-----6"----3"----------3"-----3"----------|
|---0-"----0"------0"-----0"-----0" ---0"----------0"-----0"----------|

Riff 2
|--------------------------------------------------------------------------------|
|--7"----5"----4"-----7"----5"---4"----6"----5"----------------------------------|
|--0"----0" ---0"-----0"----0"---0"----0"----0"----------------------------------|
|--------------------------------------------------------------------------------|
|---------------------------------------------------|                         |--|

Riff 3
Guitar 1
|---------------------------------------------------------|
|---------------------------------------------------------|
|---------------------------------------------------------|
|---0"----------2"-------4"----------5"-------4"----------|
|---2"----------4"-------5"----------5"-------3"----------|
|---------------------------------------------------------|

Guitar 2
|------------------------------------------------------------|
|---3"-----5"-------7"---------8"-----------7"---------------|
|---4"-----4"-------4"---------4"-----------5"---------------|
|------------------------------------------------------------|
|------------------------------------------------------------|
|------------------------------------------------------------|

Riff 4 - Fill 1
--------------------------------------------|
--------------------------------------------|
--7-----------------------------------------|
--7-----------------------------------------|
--5-----------------------------------------|
--------------------------------------------|

Riff 5a
|-------------------------------------------------------|
|-------------------------------------------------------|
|-------------------------------------------------------|
|---------------7"----------6"--------------------------|
|---6"----------5"----------4"--------------------------|
|---4"----------5"----------4"------------------------- |

Play riff 3 w/o second guitar

Riff 5b
|-----------------------------------------------------------|
|-----------------------------------------------------------|
|--------------------7"-------------------------------------|
|----------8"--------5"-------------------------------------|
|---6"-----6"--------5"-------------------------------------|
|---4------6"-----------------------------------------------|


Riff 6 -  Fill 2
|----------------------------------------------------------------------|
|----------------------------------------------------------------------|
|----7-----------------------------------------------------------------|
|----7----5--------7------8------10------8-----11-------8------11------|
|----5----5--------7------8------10------8-----11-------8------11------|
|---------3--------5------6-------8------6------9-------6-------9------|

Riff 7
|--------------------------------------------------------------|
|--------------------------------------------------------------|
|---7"------10"--------9"--------------------------------------|
|---7"------10"--------9"--------------------------------------|
|---5"-------8"--------7"------6"-------5"------4"-------------|
|----------------------------- 4" ------0" -----0" ------------|

Riff 8
|-----------------------------------------------------------------------|
|--5"----6"----5"-----7"---8"----9"----8"-------------------------------|
|-----------------------------------------------------7-----10----------|
|-----------------------------------------------------7-----10----------|
|-----------------------------------------------------5------8----------|
|-----------------------------------------------------------------------|

Riff 9 - End.
--------------------------------------|
--------------------------------------|
--------------------------------------|
---7----------------------------------|
---5----------------------------------|
---5----------------------------------|


Leviathan Myspace Webpage
http://www.myspace.com/leviathanx666x
Добавлено: 25.03.2012
Другие материалы по этой песне:
  • Аккорды и текст

Страница создана 25.03.2012
http://primanota.ru/leviathan/requiem-for-a-turd-world-chords.htm
Привет, Гость.
Предлагаем пройти революционный курс по гитаре.
Подарок от PrimaNota.Ru, забирай!