PrimaNota.ru - самый крупный в мире бесплатный архив песенных текстов, аккордов, табулатур и нот


Leviathan - I Miss Watching You Die - таба, видео

Регистрация Запомнить меня
Войти через:  Facebook Google Twitter Vk Yandex Mail.ru

Leviathan - I Miss Watching You Die - таба, видео

Печатать
Просмотров: 73
-------------------------------------------------------------------------------
                             I MISS WATCHING YOU DIE - Leviathan
-------------------------------------------------------------------------------
Tabbed by: KALD DRØMME
E-mail:Thatatheistwiththeheadphones@gmail.com

Tuning: D Standard (Full-step Down)

Now before I show the tabs, I know for a fact they're not 100% correct especially 
with one part but they're pretty damn close. So, this song consists of 2 guitars that
usually follow each other except for one bit at the end.

Intro/Main Riff:

You wanna go a little slow here with the alternate picking. Follow the drums it's a 
pretty simple rhythm. You're gonna repeat this riff a lot through out the song.

e|---------------------------------------------------------------------------|
B|---------------------------------------------------------------------------|
G|-11-11-11-11-11-11-11-11---12-12-12--14-14-14--12-12-12-12-12-12-12--------|
D|-9--9--9--9--9--9--9--9----10-10-10--12-12-12--10-10-10-10-10-10-10--------|
A|-9--9--9--9--9--9--9--9----10-10-10--12-12-12--10-10-10-10-10-10-10--------|
E|---------------------------------------------------------------------------|

Chorus:

"Wrap the noose around your neck..."

Strum a little faster here, especially toward the end of the song when Wrest starts doing 
blast beats. Now I have a special way of playing this. I pretty much mimic what the 
synthesizer is doing while also keeping in with the guitars harmony.

e|---------------------------------------------------------------------------|
B|---------------------------------------------------------------------------|
G|---------------------------------------------------------------------------|
D|---------------------------------------------------------------------------|
A|-2-2-2-2-2-2-2--3-3-3-3-5-5-5-3-3-2-2--8-8-8-8-8-8-8--7-7-7-7-7-7-7--------|
E|-0-0-0-0-0-0-0--1-1-1-1-1-1-1-1-1-1-1--5-5-5-5-5-5-5--0-0-0-0-0-0-0--------|

Interlude:

This part is pretty hard to pinpoint exactly what he's playing here but I have 
a rough idea.

e|---------------------------------------------------------------------------|
B|---------------------------------------------------------------------------|
G|---------------------------------------------------------------------------|
D|---------------------------------------------------------------------------|
A|-4-4-4-4-4-4--7-7-7-7-7-7--9-9-9-9-9-9--5-5-5-5-5--4-4-4-4-4-4--7-7-7-7-7--|
E|-2-2-2-2-2-2--5-5-5-5-5-5--7-7-7-7-7-7--3-3-3-3-3--2-2-2-2-2-2--5-5-5-5-5--|

e|---------------------------------------------------------------------------|
B|---------------------------------------------------------------------------|
G|---------------------------------------------------------------------------|
D|---------------------------------------------------------------------------|
A|-9-9-9-9-9-9--5-5-5-5-5-5-5------------------------------------------------|
E|-7-7-7-7-7-7--3-3-3-3-3-3-3------------------------------------------------|

Solo/Outro:

Tremolo pick here, give a little vibrato as well for each note but not too much.

e|----------------|-----------------------------------------------------------|
B|----------------|-o---------------------------------------------------------|
G|----------------|-----------------------------------------------------------|
D|--7-7-7-7-7-7~--|--7-7-7-7-7-7-6-6-6-------------------7-7-7-7-7-7-10-7-7-7-|
A|----------------|-o------------------8-8-8-8-7-7-7-7-7----------------------|
E|----------------|-----------------------------------------------------------|

e|--------------------|------------------------------------------------------|
B|------------------o-|------------------------------------------------------|
G|--------------------|------------------------------------------------------|
D|-10-7-7-7-10-9-9-9--|------------------------------------------------------|
A|------------------o-|---------------=--------------------------------------|
E|---------------------------------------------------------------------------|

That's about all I could figure out by ear. Hope you can take something from this.
Well, have fun.


************************************

| /   slide up
| \   slide down
| h   hammer-on
| p   pull-off
| ~   vibrato
| +   harmonic
| x   Mute note
| b   Bend
| pb  Pre-bend
| br  Bend release
| pbr Pre-bend release
| brb Bend release bend

************************************
Добавлено: 14.06.2016
Другие материалы по этой песне:
  • Аккорды и текст

Страница создана 14.06.2016
http://primanota.ru/leviathan/i-miss-watching-you-die-chords.htm
Привет, Гость.
Предлагаем пройти революционный курс по гитаре.
Подарок от PrimaNota.Ru, забирай!