PrimaNota.ru - самый крупный в мире бесплатный архив песенных текстов, аккордов, табулатур и нот


Levi Ofer - Bageshem Nirtav - таба, видео

Регистрация Запомнить меня
Войти через:  Facebook Google Twitter Vk Yandex Mail.ru

Levi Ofer - Bageshem Nirtav - таба, видео

Печатать
Просмотров: 69
Artist: Ofer levi
Song: Bageshem nirtav
Tabbed by: Daniel Sherman (topgun10@zahav.net.il)
 
Intro Solo
 
e ---------------8-----------------9------------
B 9-8-9-6-8-9-8-9-9-8-9-8-6-8-9-8-9-------------
G ----------------------------------------------
D ----------------------------------------------
A ----------------------------------------------
E ----------------------------------------------
 

e -------------6-8-8~-8-6-----------------------
B 9-8-9-8-6-8-9-----------9-8-(6)*--------------
G ----------------------------------------------
D ----------------------------------------------
A ----------------------------------------------
E ----------------------------------------------
 
*played only in 2nd time
 
Intro Chords
 
Fm Fm5+ Bbm C
 

Verse
 
Fm
Fm Fm5+
Bbm Fm
C Fm
 
Chorus
 
Bbm Fm
C Fm
Bbm Fm
C Fm
 
Play song by this order:
Intro Solo x 2 (Backed by Intro Chords)
Verse x 2
Chorus x 1
Intro Solo x 1
Verse x 2
Chorus x 1
 
song ends with organ solo
 
Chord key:
Fm5+
133121
 
Fm
133111
 
Bbm
x13321
 
C
x32010

     
Добавлено: 26.07.2013
Другие материалы по этой песне:
  • Аккорды и текст

Страница создана 26.07.2013
http://primanota.ru/levi-ofer/bageshem-nirtav-chords.htm
Привет, Гость.
Предлагаем пройти революционный курс по гитаре.
Подарок от PrimaNota.Ru, забирай!