PrimaNota.ru - самый крупный в мире бесплатный архив песенных текстов, аккордов, табулатур и нот


Levels Of Insanity - Fsf - бас-таба, видео

Регистрация Запомнить меня
Войти через:  Facebook Google Twitter Vk Yandex Mail.ru

Levels Of Insanity - Fsf - бас-таба, видео

Печатать
Просмотров: 63
FSF Tab
Levels Of Insanity
Intro 4 TIMES
D|----------------------------------------------------------------|
A|----------------------------------------------------------------|
E|----------------------------1-----------------------------------|
A|0h1p0--0h1h4--0h1p0--0h1h4-----0h1p0--0h1h4--0h1p0--0-0-0-0-\12-|


D|---------------------------------------------------------------|
A|---------------------------------------------------------------|
E|---------------------------------------------------------------|
A|00-00-0000-00-0000-00-0000-00-0000-00-0000-00-0000-00-0000-00--|


D|----------------------------------------------------------------|
A|----------------------------------------------------------------|
E|000-0-000-0-000-0-000-000-0-0-0-000-0-0-0-000-0-000-0-000-0-000-|
A|111-1-111-1-111-1-111-111-1-1-1-111-1-1-1-111-1-111-1-111-1-111-|

balls
D|---------------------------------------------------------------|
A|---------------------------------------------------------------|
E|----------/5---/5----------/8-5----------/5---/5---------/5-4--|
A|00-00-000----0----00-00-00------00-00-000---0----00-00-00------|

(101010 is a triplet btw) Do this 5 times
D|---------------------------------------------------------------|
A|---------------------------------------------------------------|
E|---------------------------------------------------------------|
A|101010-10-10-10-10-101010-10-10-10-10-999-9-9-9-9-999-9-9-9-9--|

Evil Part 4 times
D|---------------------------------------------------------------|
A|---------------------------------------------------------------|
E|----5-4-----4-3------------5-4-3-------------3-----------------|
A|00------00-------00-----00--------0-1-4-1-3-1------------------|

Ending (Same part as before but slower)4 times also
D|---------------------------------------------------------------|
A|---------------------------------------------------------------|
E|----5-4-----4-3------------5-4-3-------------3-----------------|
A|00------00-------00-----00--------0-1-4-1-3-1------------------|
Добавлено: 02.11.2013
Вам также может быть интересно:
Другие материалы по этой песне:
  • Аккорды и текст

Страница создана 02.11.2013
http://primanota.ru/levels-of-insanity/fsf-chords.htm
Привет, Гость.
Предлагаем пройти революционный курс по гитаре.
Подарок от PrimaNota.Ru, забирай!