PrimaNota.ru - самый крупный в мире бесплатный архив песенных текстов, аккордов, табулатур и нот


Levellers - What You Know - бас-таба, видео

Регистрация Запомнить меня
Войти через:  Facebook Google Twitter Vk Yandex Mail.ru

Levellers - What You Know - бас-таба, видео

Печатать
Просмотров: 113
Track: What You Know
Artist: The Levellers
Bassist: Jeremy Cunningham
Album: A Weapon Called The Work
Tabbed by dirtydavey

Listen for timings. Happy playing!

Intro.
G -----------|
D -----------|
A -\-----3-3-|
E ---3-3-----|

Verse.
G ----
D ----
A -5--
E --5-x14

G ---------------------------------------------|
D ---------------------------------------------|
A --3-5-5-5-5---------5-5-5-5---------5-5-5-5--|
E -3---5-5-5-550505050-5-5-5-550505050-5-5-5-5-|


Middle.(x2)
G -------------|
D -------------|
A -----3----5--|
E --3----------|

Verse.
Middle. (x2)

Fiddle/Drums, Bass rests.

Bass enters (2.10)
(x1)	(x2)
G -----|------------|
D -----|------------|
A --5--|-----3----5-|
E -----|--3---------|

Verse.

Chorus.(x11)
G ----------|
D ----------|
A ---3-5-5--|
E -3--------|

Outro (x2).
G --------------------------------------------------|
D --------------------------------------------------|
A ---------------------------------7-7-7-7-7-7-7-7--|
E -5-5-5-5-5-5-5-5-5-5-5-5-5-5-5-5--7-7-7-7-7-7-7-7-|

(x1)
G ---------------------------------|
D ---------------------------------|
A ---------------------------------|
E -5-5-5-5-5-5-5-5-5-5-5-5-5-5-5-5-|

(x1)
G ----------------------------------|
D ----------------------------------|
A 777777757777777577777777775533220-|
E ----------------------------------|
Добавлено: 23.07.2012
Другие материалы по этой песне:
  • Аккорды и текст

Страница создана 23.07.2012
http://primanota.ru/levellers/what-you-know-chords.htm
Привет, Гость.
Предлагаем пройти революционный курс по гитаре.
Подарок от PrimaNota.Ru, забирай!