PrimaNota.ru - самый крупный в мире бесплатный архив песенных текстов, аккордов, табулатур и нот


Levellers - What A Beautiful Day - аккорды и текст, видео

Регистрация Запомнить меня
Войти через:  Facebook Google Twitter Vk Yandex Mail.ru

Levellers - What A Beautiful Day - аккорды и текст, видео

Печатать
Просмотров: 132
What A Beautiful Day
Levellers
Guitar Tab: What a beautiful dat
    Artist: The Levellers
     Album: Mouth To Mouth
    Author: Grako (tomekg@ajax.umcs.lublin.pl)




 What a beautiful daaay, daay, day     	I'm the	king of all time

e ----------------0                   		-0- -0--0  -- 
B ----------------2                   		-2- -2--0  -2--
G ----------------2   x5              		-2- -2--1  -2-      -2--4-2---
D ----------------2                   		-2- -2--2  -4--     --------4-
A ----------------0                   		-0- -0--0  -4--
E ----------------0                   		-0- -0--0  -2


   Nothing is impossible,    in my all powerful mind

e
B -3---3--5--3-5---    ----5---5--7--5-7----
G -2---2--4--2-4---    ----4---4--6--4-6---------
D -0---0--2--0-2---    ----2---2--4--2-4-----4--4--4---7^--4
A				      -------4--4--4---7^--4
E					  ---2--2--2---5^--2



 It was on the fifth of November   When time it went back

e--5--				    ----4
B--6--				  ------5
G--7---				 -------6
D--7----			    ----6
A--5--				      --4
E--5-				       -4

 These 2 chords seem to be incorrect a little, but that's all I could do
     
Добавлено: 26.08.2013
Другие материалы по этой песне:
  • Аккорды и текст

Страница создана 26.08.2013
http://primanota.ru/levellers/what-a-beautiful-day-chords.htm
Привет, Гость.
Предлагаем пройти революционный курс по гитаре.
Подарок от PrimaNota.Ru, забирай!