PrimaNota.ru - самый крупный в мире бесплатный архив песенных текстов, аккордов, табулатур и нот


Levan Polka - Leekspin - таба, видео

Регистрация Запомнить меня
Войти через:  Facebook Google Twitter Vk Yandex Mail.ru

Levan Polka - Leekspin - таба, видео

Печатать
Просмотров: 140
-------------------------------------------------------------------------------
                             Leek spin - Ievan Polka - Eino Kettunen
-------------------------------------------------------------------------------

simplified from: tabs.ultimate-guitar.com/tabs/l/loituma/levan_polka_tab.htm

e|-----0-0-2-3-0-0-3-2-----2-3-0-0----0-0-2-3-0-0-3-77777-5-3-0-0|
B|---0-----------------3-3----------0----------------------------|
G|---------------------------------------------------------------|
D|---------------------------------------------------------------|
A|---------------------------------------------------------------|
E|---------------------------------------------------------------|

e|77-7-5-3-2-----2-55555-2-3-0-0--77-7-5-3-2-----2-55555-2-3-0-0-|
B|-----------3-3-----------------------------3-3-----------------|
G|---------------------------------------------------------------|
D|---------------------------------------------------------------|
A|---------------------------------------------------------------|
E|---------------------------------------------------------------|

Добавлено: 16.08.2015
Другие материалы по этой песне:
  • Аккорды и текст

Страница создана 16.08.2015
http://primanota.ru/levan-polka/leekspin-chords.htm
Привет, Гость.
Предлагаем пройти революционный курс по гитаре.
Подарок от PrimaNota.Ru, забирай!