PrimaNota.ru - самый крупный в мире бесплатный архив песенных текстов, аккордов, табулатур и нот


Letzte Instanz - Am Fluss - аккорды и текст, видео

Регистрация Запомнить меня
Войти через:  Facebook Google Twitter Vk Yandex Mail.ru

Letzte Instanz - Am Fluss - аккорды и текст, видео

Печатать
Просмотров: 33
Am Fluss
Letzte Instanz
Am Fluss, by Letzte Instanz

For the Chorus, the following chords may be substituted to simplify things:
Ab  D
Bb  G
In the first line of the chorus, Bb may potentially be a Bm.  I'm open to feedback.
------------------------------

Intro
e|----------------0-----3---0-----0----0--0-------------3---0-----0----0--0--|
B|-------------1-3-3-31---------3--1-3--1---3------1-31---------3--1-3--1---3|
G|----------0-2--------------------------------------------------------------|
D|---------------------------------------------------------------------------|
A|---------------------------------------------------------------------------|
E|---------------------------------------------------------------------------|

e|---------0-----3---0-----0----0--0-------------3---0-----0----0----0----0--|
B|----------3--31---------3--1-3--1---3------1-31---------3--1-3--1-3--1-3--1|
G|---------------------------------------------------------------------------|
D|---------------------------------------------------------------------------|
A|---------------------------------------------------------------------------|
E|---------------------------------------------------------------------------|

Am      E         G           Dm
Heute nochmal den Fluss entlang
F                      Dm     E
Fließt wieder zahm wie vorher
Am          E           G           Dm
Dort in der Biegung    bin ich geboren
F                        D   E
Jetzt muss ich auf und davon
A             E       C              G
Wie heißt der Spruch? "Du musst erst gehen,
   F
um wieder zurück zu kehren"
Dm                  E
Was das immer auch heißt - Nach Haus

Chorus
Am        Ab/D       Bb/G
So wie es ist, ja so bleibt es nicht
F                             E
Und weil das so ist, wird es anders sein
   Am            Ab/D         Bm
N' bisschen wie 'ja' und auch wieder 'nein'
   F                       E
Es ist nicht für immer und doch ist es neu.

[intstrumental]
e|-----------------0---0--3-0-----0----0--0-------------3---0-----0----0--0--|
B|--------------1-3------3------3--1-3--1---3------1-31---------3--1-3--1---3|
G|-----------0-2-------------------------------------------------------------|
D|---------------------------------------------------------------------------|
A|---------------------------------------------------------------------------|
E|---------------------------------------------------------------------------|

Am              E      G       Dm
Pech, dass mein Weizen woanders blüht
F                     Dm      E
Klar bin ich froh, es geht weiter
Am         E          G         Dm
Andern vor mir ging's gerade so
  F
Vielleicht ja scheint anderswo
Dm                  E
Diesselbe Sonne wie hier auf mich

Chorus x2
Am        Ab/D       Bb/G
So wie es ist, ja so bleibt es nicht
    F                        E
Und weil das so ist, wird es anders sein
Am               Ab/D         Bm
N' bisschen wie 'ja' und auch wieder 'nein'
   F                       E
Es ist nicht für immer und doch ist es neu.

Am        Ab/D       Bb/G
So wie es ist, ja so bleibt es nicht
    F           Am           E
Und weil das so ist, wird es anders sein
   Am            Ab/D         Bm
N' bisschen wie 'ja' und auch wieder 'nein'
   F                       E
Es ist nicht für immer und doch ist es neu.

[Instrumental]
e|----------------0-----3---0-----0----0--0-------------3---0-----0----0--0--|
B|-------------1-3-3-31---------3--1-3--1---3------1-31---------3--1-3--1---3|
G|----------0-2--------------------------------------------------------------|
D|---------------------------------------------------------------------------|
A|---------------------------------------------------------------------------|
E|---------------------------------------------------------------------------|

e|---------0-----3---0-----0----0--0-------------3---0-----0----0----0----0--|
B|----------3--31---------3--1-3--1---3------1-31---------3--1-3--1-3--1-3--1|
G|---------------------------------------------------------------------------|
D|---------------------------------------------------------------------------|
A|---------------------------------------------------------------------------|
E|---------------------------------------------------------------------------|

Chorus x1.5
Am         Ab/D       Bb/G
So wie es ist, ja so bleibt es nicht
    F                        E
Und weil das so ist, wird es anders sein
   Am            Ab/D         Bm
N' bisschen wie 'ja' und auch wieder 'nein'
   F                       E
Es ist nicht für immer und doch ist es neu.

Am        Ab/D       Bb/G
So wie es ist, ja so bleibt es nicht
    Am           G        F      E
Und weil das so ist, wird es anders sein

A
Добавлено: 19.06.2016
Другие материалы по этой песне:
  • Аккорды и текст

Страница создана 27.02.2014
http://primanota.ru/letzte-instanz/am-fluss-chords.htm
Привет, Гость.
Предлагаем пройти революционный курс по гитаре.
Подарок от PrimaNota.Ru, забирай!