PrimaNota.ru - самый крупный в мире бесплатный архив песенных текстов, аккордов, табулатур и нот


The Letterheads - Common Breeze - бас-таба, видео

Регистрация Запомнить меня
Войти через:  Facebook Google Twitter Vk Yandex Mail.ru

The Letterheads - Common Breeze - бас-таба, видео

Печатать
Просмотров: 178
Уроки эстрадного вокала в Санкт-Петербурге
The Letterheads - Common Breeze (Bass Tab)

Standard Tuning 

PART 1: 

Harmonica Intro:

G|-------------------------------------|
D|-------------------------------------|
A|--10-----9-7-------5-------3---------|  x2
E|-------------------------------------|

Verse: 

"The sun will rise..."
G|-------------------------------------|
D|-------------------------------------|
A|--10-----9-7-------5-------3---------|  x2
E|-------------------------------------|

Pre Chorus: 

"When you're feeling down..."
G|------------------|
D|------------------|
A|--5---7---3-------|  x3
E|------------------|

4th time there's a pickup into the chorus
G|-------------------|
D|-------------------|
A|--5---7---3------7-| -(The 7 is the pickup) 
E|-------------------|

Chorus: 

"Oh oh, oh..."
G|-----------------------------------|
D|-----------------------------------|
A|--5-5---10-7-7---2-3-3---2-3-3---7-|
E|-----------------------------------|

G|-----------------------------------|
D|-----------------------------------|
A|--5-5---10-7-7---2-3-3---2-3-2-3-7-|
E|-----------------------------------|

Verse: 

G|------------------|
D|------------------|
A|--5---7---3-------|  x3
E|------------------|

4th time there's a pickup into the chorus
G|-------------------|
D|-------------------|
A|--5---7---3------7-| -(The 7 is the pickup) 
E|-------------------|

Chorus: 

"Oh oh, oh..."
G|-----------------------------------|
D|-----------------------------------|
A|--5-5---10-7-7---2-3-3---2-3-3---7-|
E|-----------------------------------|

G|-----------------------------------|
D|-----------------------------------|
A|--5-5---10-7-7---2-3-3---2-3-2-3-7-|  
E|-----------------------------------|

G|-----------------------------------|
D|-----------------------------------|
A|--5-5---10-7-7---2-3-3---2-3-3---7-|
E|-----------------------------------|

G|--------------------|
D|--------------------|
A|--5-5---10-7-7---2--|  To Build Up
E|--------------------|

Build Up:

G|-----------------------------------|
D|-----------------------------------|
A|--3---3-3-3-3-3-3-3-3-3-3-3-3-3-3--|   x2
E|-----------------------------------|



PART 2:

G|-----------------------------------|
D|-----------------------------------|
A|-----------------------------------|
E|--3----3--3--------3----3--3-------|

G|-----------------------|
D|-----------------------|
A|--2-2--3------2-2--3---|  
E|-----------------------|

G|-----------------------------------|
D|-----------------------------------|
A|-----------------------------------|
E|--3----3--3--------3----3--3-------|

G|-----------------------|
D|-----------------------|
A|--2-2--3------2-2--3---|  
E|-----------------------|

G|-------------------------------------|
D|-------------------------------------|
A|--2-2--3------2-2--3--3-3-3-3-3-3-3--| - Build up at end (On 3)
E|-------------------------------------|

Bridge:

G|-----------------------------------|
D|-----------------------------------|
A|-----------------------------------|
E|--3--------------------------------|

- Then no bass for a while -

"...Clouds" (Come in on Clouds)

G|---------------------|
D|---------------------|
A|--2---3------2---3---|  
E|---------------------|

Verse:

"Right Now"
G|---------------------|
D|---------------------|
A|---------------------|
E|--3------------------|

"...Say Now"
G|-----------------------------------|
D|-----------------------------------|
A|-----------------------------------|  x2
E|--3--3-----3---3-----3---3-----3---|

G|-----------------------------------|
D|-----------------------------------|
A|--2---3------2---3--------3-3-3-3--| - Build up at end (On 3)
E|-----------------------------------|


"...For you"
G|-----------------------------------|
D|-----------------------------------|
A|-----------------------------------|  
E|--3--3-----3---3-----3---3-----3---|

G|-----------------------|
D|-----------------------|
A|--2-2--3------2-2--3---|  
E|-----------------------|


G|-----------------------------------|
D|-----------------------------------|
A|-----------------------------------|  
E|--3--3-----3---3-----3---3-----3---|

G|-----------------------------------|
D|-----------------------------------|
A|--2-2--3------2-2--3------2-2--3---|  
E|-----------------------------------|

G|---------------------|
D|---------------------|
A|---------------------|
E|--3------------------|



Добавлено: 11.08.2015
Другие материалы по этой песне:
  • Аккорды и текст

Страница создана 11.08.2015
http://primanota.ru/letterheads/common-breeze-chords.htm
Привет, Гость.
Предлагаем пройти революционный курс по гитаре.
Подарок от PrimaNota.Ru, забирай!