PrimaNota.ru - самый крупный в мире бесплатный архив песенных текстов, аккордов, табулатур и нот


Letter Day Story - Save Me - таба, видео

Регистрация Запомнить меня
Войти через:  Facebook Google Twitter Vk Yandex Mail.ru

Letter Day Story - Save Me - таба, видео

Печатать
Просмотров: 103
Song Title:    Save Me
Artist/ Band:  Letter Day Story
Album/ Year:   Breakaway (2011)

Tabbed By:     Pauz Prima (primesenthyx@yahoo.com)

------------------------------------------------------------------------------------------

Chords used:

  G    F#m7  Em    C9     C

|-3-| |-3-| |-3-| |-3-| |-0-|
|-3-| |-3-| |-3-| |-3-| |-1-|
|-0-| |-2-| |-0-| |-0-| |-0-|
|-0-| |-0-| |-2-| |-2-| |-2-|
|-2-| |-x-| |-2-| |-3-| |-3-|
|-3-| |-2-| |-0-| |---| |---|


INTRO:

Guitar 1:

|-----------------5----------|
|------8---7--------7---8~~--|
|---7----7---7--------7------|
|-5-------------5------------|
|----------------------------|
|----------------------------|

|---------------------------------------------|
|---------------------------------------------|
|----------------------------------5-55555555-|
|-5-55555555-4-44444444-2-22222222-5-55555555-|
|-5-55555555-5-55555555-2-22222222-3-33333333-|
|-3-33333333-2-22222222-0-00000000------------|


Guitar 2:

|-3-33333333-3-33333333-3-33333333-3-33333333-|
|-3-33333333-3-33333333-3-33333333-3-33333333-|
|-0-00000000-2-22222222-0-00000000-0-00000000-|
|-0-00000000-0-00000000-2-22222222-2-22222222-|
|-2-22222222-x-xxxxxxxx-2-22222222-3-33333333-|
|-3-33333333-2-22222222-0-00000000------------|


CHORUS:

Guitar 1:

|-------------------------------------------|--------------|
|-------------------------------------------|-----8-----8~-|
|----------------------------------5-555555-|---7-----7----|
|-5-55555555-4-44444444-2-22222222-5-555555-|-5-----5------|
|-5-55555555-5-55555555-2-22222222-3-333333-|--------------|
|-3-33333333-2-22222222-0-00000000----------|--------------|

G             F#m7              Em
Will you save me? Will you save me?
              C9 --
When all else falls I've got nothing.


VERSE 1:


Guitar 1: (palm-muted)

|---------------------------------------------|
|---------------------------------------------|
|----------------------------------5-55555555-|
|-5-55555555-4-44444444-2-22222222-5-55555555-|  2x
|-5-55555555-5-55555555-2-22222222-3-33333333-|
|-3-33333333-2-22222222-0-00000000------------|


G
I'm sitting at the edge of the street
F#m7                         Em
Everything's caught up in between
   C9
I didn't see this coming.

G
I still have my phone left in my hand
     F#m7                              Em
It's been awhile since last I heard it rang
      C9 --
Can you tell me please what happened.


REFRAIN:

(C9)  G
Ohhh, is this real or just a dream?
C9    G
Ohhh, can somebody please help me?
    C                         C9
I'm all alone, got nowhere to go
G
Will you save me?


CHORUS:

Guitar 1:

|---------------------------------------------|
|---------------------------------------------|
|----------------------------------5-55555555-|
|-5-55555555-4-44444444-2-22222222-5-55555555-|  2x
|-5-55555555-5-55555555-2-22222222-3-33333333-|
|-3-33333333-2-22222222-0-00000000------------|


G             F#m7              Em
Will you save me? Will you save me?
              C9 --
When all else falls I've got nothing.
G             F#m7              Em
Will you save me? Will you save me?
             C9 --
My hope is slowly fading away.


INTERLUDE:

Guitar 1:

|-----------------5-------|
|------8---7--------7-----|
|---7----7---7--------7~--|
|-5-------------5---------|  2x
|-------------------------|
|-------------------------|


VERSE 2:

Guitar 1: (palm-muted)

|---------------------------------------------|
|---------------------------------------------|
|----------------------------------5-55555555-|
|-5-55555555-4-44444444-2-22222222-5-55555555-|  2x
|-5-55555555-5-55555555-2-22222222-3-33333333-|
|-3-33333333-2-22222222-0-00000000------------|

G
Trying is something i'm not good at
F#m7                         Em
I always lose my hope so easily
       C9 --
That's why they say i'm nothing.

G
But now I've started moving on
F#m7                         --  Em
Yet people just keep passing by
     C9 --
Can't anybody see me?


REFRAIN:

(C9)  G
Ohhh, is this real or just a dream?
C9    G
Ohhh, can somebody please help me?
    C                         C9
I'm all alone, got nowhere to go
G
Will you save me?


CHORUS:

Guitar 1:

|---------------------------------------------|
|---------------------------------------------|
|----------------------------------5-55555555-|
|-5-55555555-4-44444444-2-22222222-5-55555555-|  2x
|-5-55555555-5-55555555-2-22222222-3-33333333-|
|-3-33333333-2-22222222-0-00000000------------|


G             F#m7              Em
Will you save me? Will you save me?
              C9 --
When all else falls I've got nothing.
G             F#m7              Em
Will you save me? Will you save me?
             C9 --
My hope is slowly fading away.


ADLIB:

Guitar 2: G-F#m7-Em-C9

Guitar 1:

|-10-12-10---15-------------------------------------10---------------------------------------------|
|------------------------13----12----13----12-13-12---------13-12-10---------------------15-13-17~-|
|---------12---12--14-12---12----12----12-------------11-12----------12-------12---14-12-----------|
|------------------------------------------------------------------------13-10---13----------------|
|--------------------------------------------------------------------------------------------------|
|--------------------------------------------------------------------------------------------------|



REFRAIN:

(C9)  G
Ohhh, is this real or just a dream?
C9    G
Ohhh, can somebody please help me?
         C                                C9
'coz the world is slowly crashing down on me
G
Will you save me?


CHORUS:

Guitar 1:

|---------------------------------------------|
|---------------------------------------------|
|----------------------------------5-55555555-|
|-5-55555555-4-44444444-2-22222222-5-55555555-|
|-5-55555555-5-55555555-2-22222222-3-33333333-|
|-3-33333333-2-22222222-0-00000000------------|

|-10-12-10---15-------------------------------------10---------------------------------------------|
|------------------------13----12----13----12-13-12---------13-12-10----------------------13---15~-|
|---------12---12--14-12---12----12----12-------------11-12----------12----14-12----14-12----12----|
|-----------------------------------------------------------------------13-------13----------------|
|--------------------------------------------------------------------------------------------------|
|--------------------------------------------------------------------------------------------------|


G             F#m7              Em
Will you save me? Will you save me?
              C9 --
When all else falls I've got nothing.
G             F#m7              Em
Will you save me? Will you save me?
             C9 --         G
My hope is slowly fading away.

(G)      F#m7
Ooh, ooh ooh..

Guitar 1:

|-10-12-10-12-10----------------------------------------|
|----------------13-12-10--------------------13----15~~-|
|-------------------------12----12-14-12--------12------|
|----------------------------13----------13-------------|
|-------------------------------------------------------|
|-------------------------------------------------------|

              Em  --  C
Will you save me?
(C)           G
Will you save me?
Добавлено: 19.07.2012
Другие материалы по этой песне:

Страница создана 23.05.2012
http://primanota.ru/letter-day-story/save-me-chords.htm
Привет, Гость.
Предлагаем пройти революционный курс по гитаре.
Подарок от PrimaNota.Ru, забирай!