PrimaNota.ru - самый крупный в мире бесплатный архив песенных текстов, аккордов, табулатур и нот


Letter 7 - Follow The Light - таба, видео

Регистрация Запомнить меня
Войти через:  Facebook Google Twitter Vk Yandex Mail.ru

Letter 7 - Follow The Light - таба, видео

Печатать
Просмотров: 103
-------------------------------------------------------------------------------
                         Follow The Light – Letter 7
-------------------------------------------------------------------------------
Tabbed by: I Rock 4 God
Email: HobbobTok98@gmail.com

Tuning: Drop D (D,A,D,G,B,E)

RIFF x2 
e|---------------------------------------------------------------------------|
B|----------------------------------------------------------9-9-9-9-7-7-7-7--|
G|----------------------------------------------------------7-7-7-7-7-7-7-7--|
D|----------------------------------------4-4-4-4--7-7-7-7-------------------|
A|-----4-5-2--4-5-4-2-------4-5-2--5-4-2--2-2-2-2--5-5-5-5-------------------|
D|-4-4-----------------2-2---------------------------------------------------|

PRE-VERSE 
e|------------------------------------------------------------|
B|-----------------------------*-*-*-*-*-*-*------------------|
G|------------------------------------------------------------|
D|-----------5-5-5-5--------------------------5--5--5---------|
A|--4-4-4-4--3-3-3-3---|x3|---4---------------3--3--3---------|
D|--4-4-4-4-------------------4-4-4-4-4-4-4-------------------|

VERSE x4
e|------------------------------------------------------------|
B|------------------------------------------------------------|
G|--------2-2--------------------2-2--------------------------|
D|--------2-2--2-2--------4-4-4--2-2--------------------------|
A|-4-4-4--0-0--2-2--|x2|--2-2-2--0-0--2-2--|x2|---------------|
D|-4-4-4-------2-2--------------------2-2---------------------|

CHORUS
e|------------------------------------------------------------|
B|------------------------------------------------------------|
G|----------------------------2-2-2-2-2-2---------------------|
D|--4-4-4-4-4-4---------------2-2-2-2-2-2---------------------|
A|--2-2-2-2-2-2--4-4-4-4-4-4--0-0-0-0-0-0--4-4-4-4-4-4--------|
D|---------------4-4-4-4-4-4---------------4-4-4-4-4-4--------|

e|---------------------------------------------------------------------------|
B|---------------------------------------------------------------------------|
G|----------------------------2-2-2-2-2-2------------------------------------|
D|--4-4-4-4-4-4---------------2-2-2-2-2-2--4-4-4-4-4-4-4-4-4-4-4-4-4-5-5-5-5-|
A|--2-2-2-2-2-2--4-4-4-4-4-4--0-0-0-0-0-0--2-2-2-2-2-2-2-2-2-2-2-2-2-3-3-3-3-|
D|---------------4-4-4-4-4-4-------------------------------------------------|

RIFF
PRE-VERSE
VERSE
CHORUS
RIFF
PRE-VERSE (PRE-SOLO)

SOLO
e|---------------------------------------------------------------------------|
B|---------------------------------------------------------------------------|
G|--11~--11-13-14-12b----11-13-14-13-11-13-14-13-11~---119119119119119119119-|
D|---------------------------------------------------------------------------|
A|---------------------------------------------------------------------------|
D|---------------------------------------------------------------------------|




e|---------------------------------------------------------------------------|
B|-141012101410121012101410121014101210141012101410121014101210-----|x8|-14b~|
G|---------------------------------------------------------------------------|
D|---------------------------------------------------------------------------|
A|---------------------------------------------------------------------------|
D|---------------------------------------------------------------------------|

e|---------------------------------------------------------------------------|
B|--14----12-----------10----10-----------14101210141012101410121014101210---|
G|-----14----14--|x4|-----13----11--|x4|-------------------------------------|
D|---------------------------------------------------------------------------|
A|---------------------------------------------------------------------------|
D|---------------------------------------------------------------------------|

e|---------------------------------------------------------------------------|
B|---------------------------------------------------------------------------|
G|--12101210121012101210121012101210-----------------------------------------|
D|-----------------------------------96969696969696969696969696------12b-----|
A|---------------------------------------------------------------------------|
D|---------------------------------------------------------------------------|

e|---------------------------------------------------------------------------|
B|---------------------------------------------------------------------------|
G|---------------------------------------------------------------------------|
D|--9--7--6---6--7------9-6-7-6-9-6-7-6---1413141314131413141314131413-------|
A|-----------------9---------------------------------------------------------|
E|---------------------------------------------------------------------------|

e|--------------------------------------------------------------------|
B|--------------------------------------------------------------------|
G|--14111411141114111411141114111411141114111411141114111411----------|
D|--------------------------------------------------------------------|
A|--------------------------------------------------------------------|
E|--------------------------------------------------------------------|

e|---------------------------------------------------------------------------|
B|---------------------119119119119119119--1411141114111411141114111411141114|
G|--119119119119119119-------------------------------------------------------|
D|---------------------------------------------------------------------------|
A|---------------------------------------------------------------------------|
E|---------------------------------------------------------------------------|

RIFF x2
PRE-VERSE

Outro
e|(Guit. 2)----------------------------------------------------------------|
B|--14101210141012101410121014101210141012101410121014101210---------------|
G|-------------------------------------------------------------------------|
D|----------------------------------------------------------4--------------|
A|--4-4-4--4-4-4--4-4-4--4-4-4--4-4-4--4-4-4--4-4-4--4-4-4--4--------------|
E|--4-4-4--4-4-4--4-4-4--4-4-4--4-4-4--4-4-4--4-4-4--4-4-4--4--------------|


************************************
| h   hammer-on
| p   pull-off
| ~   Hold Note
| x   Mute note
| b   Bend
| *   Palm Mute
************************************

Enjoy!  Keep on Rockin' in Christ!

Here is the bands website.
www.myspace.com/letter7rocks
Добавлено: 24.05.2012
Другие материалы по этой песне:
  • Аккорды и текст

Страница создана 24.05.2012
http://primanota.ru/letter-7/follow-the-light-chords.htm
Привет, Гость.
Предлагаем пройти революционный курс по гитаре.
Подарок от PrimaNota.Ru, забирай!