PrimaNota.ru - самый крупный в мире бесплатный архив песенных текстов, аккордов, табулатур и нот


Letlive - Younger - таба, видео

Регистрация Запомнить меня
Войти через:  Facebook Google Twitter Vk Yandex Mail.ru

Letlive - Younger - таба, видео

Печатать
Просмотров: 151
INTRO (x3) / Verse (x4)
e|--------------------------------------------------------------------|
B|--------------------------------------------------------------------|
G|--------------------------------------------------------------------|
D|------------------------------------------------------------3-0-----|
A|--------------------1---------1---------------------3-----------3---|
E|--0-0-0-3-3-3-5-5-5---5-5-5-5---5-0-0-0-3-3-3-5-5-5---5-5-5---------| x7 total


CHORUS (00:46)
e|-----------------------------------------------------------------------|
B|-----------------------------------------------------------------------|
G|-----------------------------------------------------------------------|
D|--7777777777777777-55555555-7777777--7777777777777777-55555555-7777777-|
A|--5558885558885588-55555555-3333333--5558885558885588-55555555-8888888-|
E|--0008880008880088-55555555-3333333--0008880008880088-55555555-7777777-|

VERSE (01:01)

CHORUS x2 (01:32)

INTERLUDE: (01:58) Same as intro. Play intro twice.

SOLO (02:10)
e|---------------10--------------10--------------------------------10----|
B|--10---------------------10-------10-------------------------10--------|
G|-----12-9-10-9---9-10-12----12-------12-10-9-10-12-9-9-10-12---12------|
D|-----------------------------------------------------------------------|
A|-----------------------------------------------------------------------|
E|-----------------------------------------------------------------------|


Finger-tap this part to sound accurate.

e|--15h17p15p13p10h13-15h17p15p13p10h13-15h17p15p13p10h13-15h17p15p13p10h13---------|
B|--------------------------------------------------------------------------8--10~--|
G|----------------------------------------------------------------------------------|
D|----------------------------------------------------------------------------------|
A|----------------------------------------------------------------------------------|
E|----------------------------------------------------------------------------------|

ALTERNATIVELY

e|--15h17p15p13--13-15h17p15p13--13-15h17p15p13--13-15h17p15p13--13-----------|
B|-------------10--------------10--------------10--------------10-----8--10~--|
G|----------------------------------------------------------------------------|
D|----------------------------------------------------------------------------|
A|----------------------------------------------------------------------------|
E|----------------------------------------------------------------------------|

e|---------------------|
B|---------------------|
G|---------------------|
D|--777777777777xxxxx--|
A|--555888555888xxxxx--|
E|--000888000888xxxxx--|

CHORUS x2 (02:24)

OUTRO (02:56)

e|--------------------------------------------------------------------|
B|--------------------------------------------------------------------|
G|--------------------------------------------------------------------|
D|--77777777777777\--777777777777xx--77777777777777/--777777777777xx--|
A|--55588855588888\--555888555888xx--00088800088888/--000888000888xx--|
E|--00088800088888\--000888000888xx--00088800088888/--000888000888xx--|


Legend:

h       hammer on
p       pull off
/       slide up
\       slide down
x       scratch
~       let ring
Добавлено: 31.08.2013
Другие материалы по этой песне:
  • Аккорды и текст

Страница создана 31.08.2013
http://primanota.ru/letlive/younger-chords.htm
Привет, Гость.
Предлагаем пройти революционный курс по гитаре.
Подарок от PrimaNota.Ru, забирай!