PrimaNota.ru - самый крупный в мире бесплатный архив песенных текстов, аккордов, табулатур и нот


Letlive - Renegade 86 - таба, видео

Регистрация Запомнить меня
Войти через:  Facebook Google Twitter Vk Yandex Mail.ru

Letlive - Renegade 86 - таба, видео

Печатать
Просмотров: 383
Уроки эстрадного вокала в Санкт-Петербурге
Intro - 00:00
D# --------------------------------------------------------------------|
A# --------------------------------------------------------------------|
F# --14~---------------------------------------------------------------|
C# ---x----------------2-3-0-3-2-0-------------------------------------|
G# --12~---------------2-3-0-3-2-0-------------------------------------|
C# ---0~----0/10-0~----2-3-0-3-2-0-------------------------------------|

                                               Play this to end the last riff
D# ---------------------------------------------------|----------------|
A# ---------------------------------------------------|----------------|
F# --------5----------------5-------------------------|----------------|
C# --------5-0-0-2h3--------5-0-0-2h3-----------------|-3-3-0-5-5-3-0--|
G# --------3-0-0-2h3--------3-0-0-2h3-----------------|-3-3-0-5-5-3-0--|
C# --2h3h5---0-0-2h3--2h3h5---0-0-2h3---x4------------|-3-5-0-5-5-3-0--|

Verse 1 - 00:20 "You said it was the boy that bears your name..."
D# --------------------------------------------------------------------|
A# --------------------------------------------------------------------|
F# -----------------------7---5---------------------7---5--------------|
C# ------------0-0-0~---0-7-0-5-0--------0-0-0~---0-7-0-5--------------|
G# ------------0-0-0~---0-5-0-3-0--------0-0-0~---0-5-0-3--------------|
C# -------5/7--0-0-0~---0---0---0---5/7--0-0-0~---0---0----------------|
                        .   .                     .   .       
Pre-Chorus - 00:35
D# --------------------------------------------------------------------|
A# --------------------------------------------------------------------|
F# --------------------------------------------------------------------|
C# --5555555555555555000000000000000-----------------------------------|
G# --5555555555555555000000000000000-----------------------------------|
C# --5555555555555555000000000000000-----------------------------------|

Chorus 1 - 00:42   "Here in the sun..."            Play this at end
D# -----------------------------------------------|--------------------|
A# -----------------------------------------------|--------------------|
F# ------5-------5-555/777-333333333333/5555------|--------------------|
C# --0-3-5-0--5^-5-555/777-xxxxxxxxxxxx/xxxx------|--0-0---------------|
G# --0-3-3-0--5^-3-333/555-111111111111/3333---x2-|--0-0---------------|
C# --0-3---0--5^----------------------------------|--0-0---------------|

Intro again - 00:58
D# ---------------------------------------------------|----------------|
A# ---------------------------------------------------|----------------|
F# --------5----------------5-------------------------|----------------|
C# --------5-0-0-2h3--------5-0-0-2h3-----------------|-3-3-0-5-5-3-0--|
G# --------3-0-0-2h3--------3-0-0-2h3-----------------|-3-3-0-5-5-3-0--|
C# --2h3h5---0-0-2h3--2h3h5---0-0-2h3---x4------------|-3-5-0-5-5-3-0--|

Verse 2 - 01:11    "If it wasn't for the boy bears your name..."
D# --------------------------------------------------------------------|
A# --------------------------------------------------------------------|
F# -----------------------7---5---------------------7---5--------------|
C# ------------0-0-0~---0-7-0-5-0--------0-0-0~---0-7-0-5-0------------|
G# ------------0-0-0~---0-5-0-3-0--------0-0-0~---0-5-0-3-0------------|
C# -------5/7--0-0-0~---0---0---0---5/7--0-0-0~---0---0---0------------|
                        .   .                     .   . 
"They said you're nobody 'til someone kills you..."
D# --------------------------------------------------------------------|
A# --------------------------------------------------------------------|
F# -----------------------7---5---------------------7---5--------------|
C# ------------0-0-0~---0-7-0-5-0--------0-0-0~---0-7-0-5--------------|
G# ------------0-0-0~---0-5-0-3-0--------0-0-0~---0-5-0-3--------------|
C# ------------0-0-0~---0---0---0--------0-0-0~---0---0----------------|
                        .   .                     .   .

Pre Chorus 2 - 01:38
D# --------------------------------------------------------------------|
A# --------------------------------------------------------------------|
F# ----------------------------------------5------5--------------------|
C# --5555555555555555000000000000000-------5------5--------------------|
G# --5555555555555555000000000000000-------3------3--------------------|
C# --5555555555555555000000000000000---0h3---0-5^---333/55-------------|

Chorus 2 - 01:49
D# --------------------------------------------------------------------|
A# --------------------------------------------------------------------|
F# ------5-------5-555/777-333333333333/5555---------------------------|
C# --0-3-5-0--5^-5-555/777-xxxxxxxxxxxx/xxxx---------------------------|
G# --0-3-3-0--5^-3-333/555-111111111111/3333---------------------------|
C# --0-3---0--5^-------------------------------------------------------|  x4

Bridge - 02:17
D# --------------------------------------------------------------------|
A# --------------------------------------------------------------------|
F# --7777777777777777777777777777777777777777777777777777777777777777--|
C# --xxxxxxxx66666666xxxxxxxx66666666xxxxxxxx66666666xxxxxxxx66666666--|
G# --5555555555555555555555555555555555555555555555555555555555555555--|
C# --------------------------------------------------------------------|

D# --------------------------------------------------------------------|
A# --------------------------------------------------------------------|
F# --7-7-7-7-7-7-77-7777-----------------------------------------------|
C# --6-6-6-6-6-6-66-6666-----------------------------------------------|
G# --5-5-5-5-5-5-55-5555-----------------------------------------------|
C# --------------------------------------------------------------------|

02:35    "Yeah I gotta copyright..."
D# --------------------------------------------------------------------|
A# --------------------------------------------------------------------|
F# --7-----------------7-----------------------------------------------|
C# --6---------3/5/3p0-6---------000033--------------------------------|
G# --5-------3---------5-------3-000033--------------------------------|
C# ----0-3h5-------------0-3h5---000033--------------------------------|

D# --------------------------------------------------------------------|
A# --------------------------------------------------------------------|
F# --7-----------------7---------7-7-7-7-7-7-7-7-----------------------|
C# --6---------3/5/3p0-6---------6-6-6-6-6-6-6-6-----------------------|
G# --5-------3---------5-------3-5-5-5-5-5-5-5-5-----------------------|
C# ----0-3h5-------------0-3h5-----------------------------------------|

D# --------------------------------------------------------------------|
A# --------------------------------------------------------------------|
F# --7-----------------7-----------------------------------------------|
C# --6---------3/5/3p0-6---------33335533------------------------------|
G# --5-------3---------5-------3-33335533------------------------------|
C# ----0-3h5-------------0-3h5---33335533------------------------------|


D# --------------------------------------------------------------------|
A# --------------------------------------------------------------------|
F# --7-----------------7---------7-7-7-7-7-7-7-7-7777777777------------|
C# --6---------3/5/3p0-6---------6-6-6-6-6-6-6-6-6666666666------------|
G# --5-------3---------5-------3-5-5-5-5-5-5-5-5-5555555555------------|
C# ----0-3h5-------------0-3h5-----------------------------------------|

Chorus 3 - 03:04
D# --------------------------------------------------------------------|
A# --------------------------------------------------------------------|
F# ------5-------5-555/777-333333333333/5555---------------------------|
C# --0-3-5-0--5^-5-555/777-xxxxxxxxxxxx/xxxx---------------------------|
G# --0-3-3-0--5^-3-333/555-111111111111/3333---------------------------|
C# --0-3---0--5^-------------------------------------------------------|  x4

Outro - 03:32
D# --------------------------------------------------------------------|
A# --------------------------------------------------------------------|
F# --------------------------------------------------------------------|
C# --0--00--000--------------------------------------------------------|
G# --0--00--000--------------------------------------------------------|
C# --0--00--000--------------------------------------------------------|

Key:

~ = let ring
. = palm mute
^ = bend
h = hammer on
p = pull off
/ = slide
Добавлено: 08.03.2012
Другие материалы по этой песне:
  • Аккорды и текст

Страница создана 08.03.2012
http://primanota.ru/letlive/renegade-86-chords.htm
Привет, Гость.
Предлагаем пройти революционный курс по гитаре.
Подарок от PrimaNota.Ru, забирай!