PrimaNota.ru - самый крупный в мире бесплатный архив песенных текстов, аккордов, табулатур и нот


Letlive - H Ledger - таба, видео

Регистрация Запомнить меня
Войти через:  Facebook Google Twitter Vk Yandex Mail.ru

Letlive - H Ledger - таба, видео

Печатать
Просмотров: 215
Уроки эстрадного вокала в Санкт-Петербурге
Legend:
. - palm mute
b - bend
^ - bend slightly
~ - let ring
h - hammer on
X - scratch
/ - slide
T - fret 10
L - left panning (only left speaker)
R - right panning (only right speaker)

Intro - 00:00 "We're biting off..."
D# --------------------------------5-5~---13--------|
A# --------------------------------6-6~-----13------|
F# --0-00------2-232-0-------------7-7~-------------|
C# --0-00-32-23-3---3-3--0000-0000--0---------------|
G# --0-00---3------------0000-0000--0---------------|
C# ----------------------0000-0000--0---------------|
     . .                 ...  ....  .

D# ---------------------------------5-5~------------|
A# ---------------------------------6-6~------------|
F# --0-00-------33335555------------7-7~------------|
C# --0-00-32-23-33335555--0000-0000--0----00000-----|
G# --0-00---3---11113333--0000-0000--0----00000-----|
C# -----------------------0000-0000--0----00000-----|
     . .                  ...  ....  .    ....

D# --------------------------------5-5~---13--------|
A# --------------------------------6-6~-----13------|
F# --0-00------2-232-0-------------7-7~-------------|
C# --0-00-32-23-3---3-3--0000-0000--0---------------|
G# --0-00---3------------0000-0000--0---------------|
C# ----------------------0000-0000--0---------------|
     . .                 ...  ....  .

D# ---------------------------------5-5~--XXXXX-----|
A# ---------------------------------6-6~--XXXXX-----|
F# --0-00-------33335555------------7-7~--XXXXX-----|
C# --0-00-32-23-33335555--0000-0000--0----XXXXX-----|
G# --0-00---3---11113333--0000-0000--0----XXXXX-----|
C# -----------------------0000-0000--0----XXXXX-----|
     . .                  ...  ....  .    

Pre-chorus - 00:22 "A better way to..."
D# -------------------------------------------------|
A# -------------------------------------------------|
F# --33-3333-3333-333/555-3333/55555555/666---------|
C# --33-3333-3333-333/555-3333/55555555/666---------|
G# --11-1111-1111-111/333-1111/33333333/444---------|
C# -------------------------------------------------|
        ..   ..   ..         

Chorus - 00:29 "Let's just say..."
D# -------------------------------------------------|
A# -------------------------------------------------|
F# --T-T-T--141414141414141414141414-TTTTTTTTTTTT---|
C# ----------------------------------TTTTTTTTTTTT---|
G# --8-8-8--121212121212121212121212-888888888888---|
C# ----------------------------------888888888888---|    x2

D# -------------------------------------------------|
A# -------------------------------------------------|
F# -------------------------------------------------|
C# --0000000000000000-3333333333333333--------------|
G# --0000000000000000-3333333333333333--------------|
C# --0000000000000000-3333333333333333--------------|

D# -------------------------------------------------|
A# -------------------------------------------------|
F# --T-T-T--141414141414141414141414-TTTTTTTTTTTT---|
C# ----------------------------------TTTTTTTTTTTT---|
G# --8-8-8--121212121212121212121212-888888888888---|
C# ----------------------------------888888888888---|

Verse 2 - 00:51 "We've gotta find another way..."
D# -------------------------------------------------|
A# -------------------------------------------------|
F# -------------------------------------------------|
C# --000-000-0~-------------------------------------|
G# --000-000-0~-------------------------------------|
C# --000-000-0~--------00003p0----------------------|
     ... ...           ....

D# ---------------------------------5-5~------------|
A# ---------------------------------6-6~------------|
F# --0-00-------33335555------------7-7~------------|
C# --0-00-32-23-33335555--0000-0000--0----00000-----|
G# --0-00---3---11113333--0000-0000--0----00000-----|
C# -----------------------0000-0000--0----00000-----|
     . .                  ...  ....  .    ....

D# --------------------------------5-5~---13--------|
A# --------------------------------6-6~-----13------|
F# --0-00------2-232-0-------------7-7~-------------|
C# --0-00-32-23-3---3-3--0000-0000--0---------------|
G# --0-00---3------------0000-0000--0---------------|
C# ----------------------0000-0000--0---------------|
     . .                 ...  ....  .

D# ---------------------------------5-5~--XXXXX-----|
A# ---------------------------------6-6~--XXXXX-----|
F# --0-00-------33335555------------7-7~--XXXXX-----|
C# --0-00-32-23-33335555--0000-0000--0----XXXXX-----|
G# --0-00---3---11113333--0000-0000--0----XXXXX-----|
C# -----------------------0000-0000--0----XXXXX-----|
     . .                  ...  ....  .    

Pre-chorus - 01:15
D# -------------------------------------------------|
A# -------------------------------------------------|
F# --33-3333-3333-333/555-3333/55555555/666---------|
C# --33-3333-3333-333/555-3333/55555555/666---------|
G# --11-1111-1111-111/333-1111/33333333/444---------|
C# -------------------------------------------------|
        ..   ..   ..         

Chorus - 01:21 "Let's just say..."
D# -------------------------------------------------|
A# -------------------------------------------------|
F# --T-T-T--141414141414141414141414-TTTTTTTTTTTT---|
C# ----------------------------------TTTTTTTTTTTT---|
G# --8-8-8--121212121212121212121212-888888888888---|
C# ----------------------------------888888888888---|    x2

D# -------------------------------------------------|
A# -------------------------------------------------|
F# -------------------------------------------------|
C# --0000000000000000-3333333333333333--------------|
G# --0000000000000000-3333333333333333--------------|
C# --0000000000000000-3333333333333333--------------|

D# -------------------------------------------------|
A# -------------------------------------------------|
F# --T-T-T--141414141414141414141414-TTTTTTTTTTTT---|
C# ----------------------------------TTTTTTTTTTTT---|
G# --8-8-8--121212121212121212121212-888888888888---|
C# ----------------------------------888888888888---|

Bridge - 01:44 "Now I'm stuck..."
D# -------------------------------------------------|
A# ------------5----5-------------------------------|
F# ------------2----2-------------------------------|
C# --0000------3----3-000xxxxx-0~------------3---2--|
G# --0000-------------000xxxxx-0~-1p0--0h1-1---3----|
C# --00003p0-0---000--000xxxxx-0~-----3-------------|
     ....    .   ...  ...

D# -------------------------------------------------|
A# ------------5----5-------------------------------|
F# ------------2----2-------------------------------|
C# --0000------3----3-000xxxxx-0~------------3-2-0~-|
G# --0000-------------000xxxxx-0~-1p0--0h1-1---3-0~-|
C# --00003p0-0---000--000xxxxx-0~-----3----------0~-|
     ....    .   ...  ...                        .

      "(stand) take my stand..."
D# -------------------------------------------------|
A# -------------------------------------------------|
F# -------------------------------------------------|
C# ---------------0-------------333-222-------------|
G# --000--000--000-0-000--000--1---3----------------|
C# --000--000--000---000--000-----------------------|
     LLL  RRR  LLLLL RRR  LLL

D# -------------------------------------------------|
A# -------------------------------------------------|
F# -------------------------------------------------|
C# ---------------0---------------------------------|
G# --000--000--000-0-000--000-----------------------|
C# --000--000--000---000--000-----------------------|
     LLL  RRR  LLLLL RRR  LLL

    "...bus, the bus, the bus. Back of the bus."
D# -------------------------------------------------|
A# -------------------------------------------------|
F# -------------------------------------------------|
C# --0~---0~---0~---0~---0~---0~---0~---0~----------|
G# --0~---0~---0~---0~---0~---0~---0~---0~----------|
C# --0~---0~---0~---0~---0~---0~---0~---0~----------|
      .    .    .    .    .    .    .    .  Mute after each chord.

Pre-chorus - 02:28
D# -------------------------------------------------|
A# -------------------------------------------------|
F# --33-3333-3333-333/555-3333/555555-6-6-6---------|
C# --33-3333-3333-333/555-3333/555555-6-6-6---------|
G# --11-1111-1111-111/333-1111/333333-4-4-4---------|
C# -------------------------------------------------|
        ..   ..   ..  

Chorus - 02:34 "Let's just say..." (ENTIRE CHORUS PLAYED TWICE)
D# -------------------------------------------------|
A# -------------------------------------------------|
F# --T-T-T--141414141414141414141414-TTTTTTTTTTTT---|
C# ----------------------------------TTTTTTTTTTTT---|
G# --8-8-8--121212121212121212121212-888888888888---|
C# ----------------------------------888888888888---|    x2

D# -------------------------------------------------|
A# -------------------------------------------------|
F# -------------------------------------------------|
C# --0000000000000000-3333333333333333--------------|
G# --0000000000000000-3333333333333333--------------|
C# --0000000000000000-3333333333333333--------------|

D# -------------------------------------------------|
A# -------------------------------------------------|
F# --T-T-T--141414141414141414141414-TTTTTTTTTTTT---|
C# ----------------------------------TTTTTTTTTTTT---|
G# --8-8-8--121212121212121212121212-888888888888---|
C# ----------------------------------888888888888---|

Outro - 03:20 "Because Jesus is making fun of me."
D# -------------------------------------------------|
A# -------------------------------------------------|
F# -------------------------------------------------|
C# --0-0-0--0-0-0~----------------------------------|
G# --0-0-0--0-0-0~----------------------------------|
C# --0-0-0--0-0-0~----------------------------------|
          .



Any mistakes? Tell me. Please rate!
Добавлено: 02.12.2013
Другие материалы по этой песне:
  • Аккорды и текст

Страница создана 02.12.2013
http://primanota.ru/letlive/h-ledger-chords.htm
Привет, Гость.
Предлагаем пройти революционный курс по гитаре.
Подарок от PrimaNota.Ru, забирай!