PrimaNota.ru - самый крупный в мире бесплатный архив песенных текстов, аккордов, табулатур и нот


Leteci Odred - Sanjao Sam Moju Ruzicu - аккорды и текст, видео

Регистрация Запомнить меня
Войти через:  Facebook Google Twitter Vk Yandex Mail.ru

Leteci Odred - Sanjao Sam Moju Ruzicu - аккорды и текст, видео

Печатать
Просмотров: 97
Sanjao Sam Moju Ruzicu
Leteci Odred
Intro-riff:
 |------------------------------------|
 |------------------------------------|
 |/11~---11~----/9~---9~--------------|        
 |------------11-----------12p11-11~--|
 |------------------------------------|
 |------------------------------------|

 
F#m        D        A C# 
sanjao sam moju ruzicu 
F#m       D          A C# 
palila me je k'o sibicu 
F#m        D          A         E 
sanjao sam ruke njene da je sad pored mene 
F#m           C#           F#m C# 
gorio bih kao vatra olimpijska 

F#m        D        A C# 
pisao sam mojoj ruzici 
F#m        D        A C# 
a u pismu marke dolari 
F#m        D          A         E 
dao bi joj sve najbolje samo nek je dobre volje 
F#m           C#           F#m C# 
ne bi vise tuzan bio ja

 
     A      E 
Pjevali smo stare pjesme 
F#m      C# 
radili i sto se ne smije 
D         E         A E 
ali nikad nismo varali 

     A      E 
voljeli smo staro mjesto 
F#m      C# 
odlazili tamo cesto 
D             E           A ( C# ) 
gdje smo prvi put se ljubili 

/ uvodni solo /
 

F#m        D        A C# 
sanjao sam miris kestena 
F#m        D        A C# 
na papiru tajna pisana 
F#m        D          A         E 
sanjao sam miris zime a na usni njeno ime 
F#m           C#         F#m  C# 
nikad vise necu reci ja 

F#m        D        A C# 
jer pisala je meni ruzica 
F#m        D        A C# 
mogu ja bez tvojih dolara 
F#m        D          A         E 
ma trebaju mi ruke radi da me griju kad zahladi 
F#m           C#       F#m C# 
udala se moja ruzica 


     A      E 
Pjevali smo stare pjesme 
F#m      C# 
radili i sto se ne smije 
D         E         A E 
ali nikad nismo varali 

     A      E 
voljeli smo staro mjesto 
F#m      C# 
odlazili tamo cesto 
D             E           A ( C# ) 
gdje smo prvi put se ljubili 

Solo:
 |--------------------------------------------|
 |--------------------------------------------|
 |-----14--13-11--11/13~--11--13-14-----------|
 |-/11-------------------------------11~------|
 |--------------------------------------------|
 |--------------------------------------------|

 |--------------------------------------------|
 |--------------------------------------------|
 |-----14--13-11--11/13~--11--13-14---14~-----|
 |-/11----------------------------------------|
 |--------------------------------------------|
 |--------------------------------------------|

 |--------------------------------------------|
 |--------------------------------------------|
 |-----14--13-11--11/13~--11--13-14~----------|
 |--11----------------------------------------|
 |--------------------------------------------|
 |--------------------------------------------|

 |--------------------------------|
 |-14-14-12-14---16b17---15-14-12-|
 |--------------------------------|
 |--------------------------------|
 |--------------------------------|
 |--------------------------------|

 |-----------------------------------------------------------|
 |-----------------------------------------------------------|
 |-11~---11~---13-11~---10---10---11--13---11~-------9~------|
 |-----------------------------------------------------------|
 |-----------------------------------------------------------|
 |-----------------------------------------------------------|
     A      E 
Pjevali smo stare pjesme 
F#m      C# 
radili i sto se ne smije 
D         E         A E 
ali nikad nismo varali 

     A      E 
voljeli smo staro mjesto 
F#m      C# 
odlazili tamo cesto 
D             E           A ( C# ) 
gdje smo prvi put se ljubili 

end-riff:
 |--------------------------------------------|
 |--------------------------------------------|
 |-----14--13p11--/10~--10~--11h13----11~-----|
 |-/11----------------------------------------|
 |--------------------------------------------|
 |--------------------------------------------|
Добавлено: 08.08.2015
Вам также может быть интересно:
Другие материалы по этой песне:

Страница создана 08.06.2012
http://primanota.ru/leteci-odred/sanjao-sam-moju-ruzicu-chords.htm
Привет, Гость.
Предлагаем пройти революционный курс по гитаре.
Подарок от PrimaNota.Ru, забирай!