PrimaNota.ru - самый крупный в мире бесплатный архив песенных текстов, аккордов, табулатур и нот


Lessons - Solos1 - таба, видео

Регистрация Запомнить меня
Войти через:  Facebook Google Twitter Vk Yandex Mail.ru

Lessons - Solos1 - таба, видео

Печатать
Просмотров: 59
		   Ayeh Guitarists!

I 've just read some tutorial about guitar playing and I thought I'd
put on some stuff to all of you out there.
It's not a tutorial but some solo pieces.
I've been playing the guitar for about 5 years, so you can trust me
I think... (I hope...)

The following pieces are from Heavy Metal songs, so you better
play them fast (and accurately as well!!!). I don't have a metronome,
so unfortunately I can't tell you the exact speed to every piece.
That's enough talking, let the music rule:


Explanations:  P - pull off
               H - hammer on
               B - bend
               R - release bend
               / - slide up
               \ - slide down
               ^ - upstroke (the pick moves towards the sky. "Pull")
               v - downstroke (the pick moves towards the ground. "Push")

BE CAREFUL WITH THE STROKE DIRECTION!!!

===================================

FIRST: A piece of solo from TV War
      (Accept, Roussian Roulette album)

    ^   v   ^   v   ^   v   ^   ^    v   ^   ^   v   ^   v   v   ^
E|--------------------------------|-------------------------14--15-|
B|-15--14------14--17--15--14-----|-15--14------14--15--17---------|
G|---------16------------------16-|---------16---------------------|
D|--------------------------------|--------------------------------|
A|--------------------------------|--------------------------------|
E|--------------------------------|--------------------------------|

    ^   v   ^   v   ^   ^   v   ^    v   ^   v   ^   ^   v   ^   v
E|-----14--17--15--14------14-----|--------------------------------|
B|-17------------------17------17-|-15--14--15--14------14---------|
G|--------------------------------|-----------------16------16--14-|
D|--------------------------------|--------------------------------|
A|--------------------------------|--------------------------------|
E|--------------------------------|--------------------------------|

    ^
E|-------------------------------|
B|-------------------------------|
G|-16----------------------------|
D|-------------------------------|
A|-------------------------------|
E|-------------------------------|

              After some bridge crap, the best part:

    ^       v       ^   v   ^        ^       ^   v   ^   ^   v
E|---------10-P-7-------7--10-P-7-|--9-P-7-------------------------|
B|-/8---------------8-------------|---------10---8---7-------------|
G|--------------------------------|----------------------9---7-\-6-|
D|--------------------------------|--------------------------------|
A|--------------------------------|--------------------------------|
E|--------------------------------|--------------------------------|

    ^       v       ^   v   ^        ^       ^   v   ^
E|---------12-P-9-------9--12-P-9-|-10-P-9------10-/12-------------|
B|/10--------------10-------------|----------9---------------------|
G|--------------------------------|--------------------------------|
D|--------------------------------|--------------------------------|
A|--------------------------------|--------------------------------|
E|--------------------------------|--------------------------------|

    ^       v       ^   v   ^        ^       ^   v   ^   v   ^   v
E|---------14-P10------10--14-P10-|-12-P10------10--12--14--12--10-|
B|/12--------------12-------------|---------12---------------------|
G|--------------------------------|--------------------------------|
D|--------------------------------|--------------------------------|
A|--------------------------------|--------------------------------|
E|--------------------------------|--------------------------------|

    ^   v   ^   v   ^       ^   v    ^   ^   v       ^
E|-12--14--12--10---9-P-7---------|--------------------------------|
B|-------------------------10---8-|--7-----------------------------|
G|--------------------------------|------9---7-\-6-----------------|
D|--------------------------------|------------------9-------------|
A|--------------------------------|--------------------------------|
E|--------------------------------|--------------------------------|

===================================

SECOND: A masterpiece from the second solo of Breakpoint a'la Marty Friedman
       (Megadeth, Super Mario Bros Soundtrack)

    v   ^   v   ^   v   ^   v   ^    v   ^   v   v   ^   v   ^   v
E|--------------------------------|--------------------------------|
B|--------------------------------|--------------------------------|
G|--------------------------------|-------------19--21--19------19-|
D|---------19--21--23--21--19--21-|-19--21--23--------------23-----|
A|-21--23-------------------------|--------------------------------|
E|--------------------------------|--------------------------------|

    ^   v   ^   v   v   ^   v   ^    v                       ^
E|-------------------------19--21-|-22-B24------------------20-----|
B|-----------------21--22---------|--------------------------------|
G|-----19--21--23-----------------|--------------------------------|
D|-23-----------------------------|--------------------------------|
A|--------------------------------|--------------------------------|
E|--------------------------------|--------------------------------|

    ^                       ^        ^           ^           v   ^
E|-19-H20-P19-P17-H19-P17---------|-------------------------16-----|
B|-------------------------19-P17-|-22-P19-\18--21-P18-\16------18-|
G|--------------------------------|--------------------------------|
D|--------------------------------|--------------------------------|
A|--------------------------------|--------------------------------|
E|--------------------------------|--------------------------------|

    v               v   ^       v    ^                       ^
E|-----------------15----------12-|--------------------------------|
B|-17-H20-P17-\15------17-\14-----|-14-P13-P12-\10-H12-P10---------|
G|--------------------------------|-------------------------11-P-9-|
D|--------------------------------|--------------------------------|
A|--------------------------------|--------------------------------|
E|--------------------------------|--------------------------------|

    v
E|--------------------------------|
B|--------------------------------|
G|-11-----------------------------|
D|--------------------------------|
A|--------------------------------|
E|--------------------------------|

Wow, nice eh? In the descending part you don't have to pick much, but
your left hand (maybe the right) has enough work...
Be careful with the pull-offs, hammer-ons and the slides, they're
VERY important!

===================================

THIRD: A piece of solo from Angry Again
      (Megadeth, Last Action Hero Soundtrack)

    v   ^   v   v   ^   v   v   ^    v   ^   v   ^   v   ^   v   ^
E|--------------------------0-----|-12---0---7--12---0---7--10---0-|
B|--------------0---8--12------12-|--------------------------------|
G|--0---9--12---------------------|--------------------------------|
D|--------------------------------|--------------------------------|
A|--------------------------------|--------------------------------|
E|--------------------------------|--------------------------------|

    v   ^   v   ^   v   ^   v   ^    v   ^
E|--7--10---0--10--14---0--12--14-|-15--14H15P14P12H14P12\10H12P10-|
B|--------------------------------|--------------------------------|
G|--------------------------------|--------------------------------|
D|--------------------------------|--------------------------------|
A|--------------------------------|--------------------------------|
E|--------------------------------|--------------------------------|

    ^                       ^            v   ^   v       ^   v   ^
E|--------------------------------|-------------12H17P12-----------|
B|-15B17R15------P-12-H15--12-----|-----12--15-----------15-12-----|
G|--------------------------------|-----------------------------14-|
D|--------------------------------|--------------------------------|
A|--------------------------------|--------------------------------|
E|--------------------------------|--------------------------------|

    v  ^            ^  v  ^  v       ^
E|--------------------------------|--------------------------------|
B|-12-----------------14----------|--------------------------------|
G|----14B16R14-P12----14----12H14-|-12----------\--\--\--\--\--\-\-|
D|-----------------14----14-------|--------------------------------|
A|--------------------------------|--------------------------------|
E|--------------------------------|--------------------------------|

You can put in some vibrato where there are longer notes.
(Listen the original!)
Sorry, but I just can't draw the exact lenght for each note, but
it's easy to figure out I think.

===================================

Maybe later I'll put some more stuff onto the Net, just be patient, ok?

Send your opinions, questions or even dislikes to:
 
                    rocker@hal2000.hal.vein.hu
               or   nagyd@almos.vein.hu

July '94, Hungary
     
Добавлено: 16.10.2013
Вам также может быть интересно:
Другие материалы по этой песне:
  • Аккорды и текст

Страница создана 16.10.2013
http://primanota.ru/lessons/solos1-chords.htm
Привет, Гость.
Предлагаем пройти революционный курс по гитаре.
Подарок от PrimaNota.Ru, забирай!