PrimaNota.ru - самый крупный в мире бесплатный архив песенных текстов, аккордов, табулатур и нот


Lessons - Sweep Picking - Basic Sweep Picking Exersises Warm Ups - таба, видео

Регистрация Запомнить меня
Войти через:  Facebook Google Twitter Vk Yandex Mail.ru

Lessons - Sweep Picking - Basic Sweep Picking Exersises Warm Ups - таба, видео

Печатать
Просмотров: 108
Title:
 Basic Sweep Picking  Practice
 Start slowly and build your speed up gradually.
 These exercises are best done using a metronome.

Tabber: BadBikaDamo

Legend

h - hammer on
p - pull off
V - pick stroke up
n - pick stroke down



      n  n  n  n  n  n  n  n  n  n  n  n    
E ||--------12-------12-------12-------12---|
B ||-----13-------13-------13-------13------|
G ||o-14-------14-------14-------14---------|
D ||o---------------------------------------|
A ||----------------------------------------|
E ||----------------------------------------|

   n  n  n  n  n  n  n  n  n  n  n  n      
|--------12-------12-------12-------12--||
|-----13-------13-------13-------13-----||
|--14-------14-------14-------14-------o||
|--------------------------------------o||
|---------------------------------------||
|---------------------------------------||x10





    n  n  n  n  n  n  n  n  n  n  n  n     
||--------12-------12-------12-------12---|
||-----13-------13-------13-------13------|
||o-14-------14-------14-------14---------|
||o---------------------------------------|
||----------------------------------------|
||----------------------------------------|

   n  n  n  n  n  n  n  n  n  n  n  n     
|--------12-------12-------12-------12---|
|-----13-------13-------13-------13------|
|--14-------14-------14-------14---------|
|----------------------------------------|
|----------------------------------------|
|----------------------------------------|

   n  n  n  n  n  n  n  n  n  n  n  n     
|--------10-------10-------10-------10---|
|-----11-------11-------11-------11------|
|--12-------12-------12-------12---------|
|----------------------------------------|
|----------------------------------------|
|----------------------------------------|

   n  n  n  n  n  n  n  n  n  n  n  n      
|--------10-------10-------10-------10--||
|-----11-------11-------11-------11-----||
|--12-------12-------12-------12-------o||
|--------------------------------------o||
|---------------------------------------||
|---------------------------------------||x10





    n  n  n  V  V  V  n  n  n  V  V  V       n  n  n  V  V  V  n  n  n  V  V  V      
||--------12-15-------------12-15---------|--------12-15-------------12-15--------||
||-----13-------13-------13-------13------|-----13-------13-------13-------13-----||
||o-14-------------12-14-------------12---|--14-------------12-14-------------12-o||
||o---------------------------------------|--------------------------------------o||
||----------------------------------------|---------------------------------------||
||----------------------------------------|---------------------------------------||x10





    n  n  n  V  n  n  n  V  n  n  n  V       n  n  n  V  n  n  n  V  n  n  n  V      
||--------3--6--------6--9--------9--12---|--------12-15-------15-18-------18-21--||
||-----5-----------8-----------11---------|-----14----------17----------20--------||
||o-6-----------9-----------12------------|--15----------18----------21----------o||
||o---------------------------------------|--------------------------------------o||
||----------------------------------------|---------------------------------------||
||----------------------------------------|---------------------------------------||x10





    n  n  n  V  V  V  n  n  n  V  V  V       n  n  n  V  V  V  n  n  n  V  V  V      
||----------------------------------------|---------------------------------------||
||----------------------------------------|---------------------------------------||
||o-------12-12-------------12-12---------|--------12-12-------------12-12-------o||
||o----14-------14-------14-------14------|-----14-------14-------14-------14----o||
||--15-------------15-15-------------15---|--15-------------15-15-------------15--||
||----------------------------------------|---------------------------------------||x10





    n  n  n  n  V  V  V  V  n  n  n  n  V  V  V  V     
||----------------------------------------------------|
||-----------13-13-------------------13-13------------|
||o-------12-------12-------------12-------12---------|
||o----14-------------14-------14-------------14------|
||--15-------------------15-15-------------------15---|
||----------------------------------------------------|

  n  n  n  n  V  V  V  V  n  n  n  n  V  V  V  V      
---------------------------------------------------||
-----------13-13-------------------13-13-----------||
--------12-------12-------------12-------12-------o||
-----14-------------14-------14-------------14----o||
--15-------------------15-15-------------------15--||
---------------------------------------------------||x10





    n  n  n  n  n  V  V  V  V  V  n  n  n  n  n  V  V  V  V  V     
||--------------12-12-------------------------12-12---------------|
||-----------13-------13-------------------13-------13------------|
||o-------12-------------12-------------12-------------12---------|
||o----14-------------------14-------14-------------------14------|
||--15-------------------------15-15-------------------------15---|
||----------------------------------------------------------------|

  n  n  n  n  n  V  V  V  V  V  n  n  n  n  n  V  V  V  V  V      
--------------12-12-------------------------12-12--------------||
-----------13-------13-------------------13-------13-----------||
--------12-------------12-------------12-------------12-------o||
-----14-------------------14-------14-------------------14----o||
--15-------------------------15-15-------------------------15--||
---------------------------------------------------------------||x10





    n  n  n  n  n     V     V  V  V  V       n  n  n  n  n     V     V  V  V  V      
||--------------12h15-15p12---------------|--------------12h15-15p12--------------||
||-----------13-------------13------------|-----------13-------------13-----------||
||o-------12-------------------12---------|--------12-------------------12-------o||
||o----14-------------------------14------|-----14-------------------------14----o||
||--15-------------------------------15---|--15-------------------------------15--||
||----------------------------------------|---------------------------------------||x10





      n  n  n  n  n  n  n  n  n  n  n  n       n  n  n  n  n  n  n  n  n  n  n  n      
||----------------------------------------|---------------------------------------||
||----------------------------------------|---------------------------------------||
||o-------9--------9--------9--------9----|--------9--------9--------9--------9--o||
||o----10-------10-------10-------10------|-----10-------10-------10-------10----o||
||--12-------12-------12-------12---------|--12-------12-------12-------12--------||
||----------------------------------------|---------------------------------------||x10





    n  n  n  n  n  V  n  n  n  n  n  V       n  n  n  n  n  V  n  n  n  n  n  V      
||--------------8--12-------------8--12---|--------------8--12-------------8--12--||
||-----------10----------------10---------|-----------10----------------10--------||
||o-------9-----------------9-------------|--------9-----------------9-----------o||
||o----10----------------10---------------|-----10----------------10-------------o||
||--12----------------12------------------|--12----------------12-----------------||
||----------------------------------------|---------------------------------------||x10





    n  n  n  n  n     V  V       n  n  n  n  n     V  V     
||--------------12p8----------|--------------12p8----------|
||-----------10-------10------|-----------10-------10------|
||o-------9--------------9----|--------9--------------9----|
||o----10---------------------|-----10---------------------|
||--12------------------------|--12------------------------|
||----------------------------|----------------------------|

  n  n  n  n  n     V  V       n  n  n  n  n     V  V     
--------------10p5----------|--------------10p5----------|
-----------7--------7-------|-----------7--------7-------|
--------6--------------6----|--------6--------------6----|
-----7----------------------|-----7----------------------|
--9-------------------------|--9-------------------------|
----------------------------|----------------------------|

  n  n  n  n  n     V  V       n  n  n  n  n     V  V     
--------------12p8----------|--------------12p8----------|
-----------10-------10------|-----------10-------10------|
--------9--------------9----|--------9--------------9----|
-----10---------------------|-----10---------------------|
--12------------------------|--12------------------------|
----------------------------|----------------------------|

  n  n  n  n  n     V  V       n  n  n  n  n     V  V     
--------------17p13---------|--------------17p13---------|
-----------15-------15------|-----------15-------15------|
--------14-------------14---|--------14-------------14---|
-----15---------------------|-----15---------------------|
--17------------------------|--17------------------------|
----------------------------|----------------------------|

  n  n  n  n  n     V  V       n  n  n  n  n     V  V      
--------------12p8----------|--------------12p8---------||
-----------10-------10------|-----------10-------10-----||
--------9--------------9----|--------9--------------9--o||
-----10---------------------|-----10-------------------o||
--12------------------------|--12-----------------------||
----------------------------|---------------------------||x10





    n  n  V  n  n  V  n  n  V  n  n  V       n  n  V  n  n  V  n  n  V  n  n  V      
||----------------------------------------|---------------------------------------||
||----------------------------------------|---------------------------------------||
||o----8--12----8--12----7--10----7--10---|-----10-13----10-13----8--12----8--12-o||
||o-10-------10-------8--------8----------|--10-------10-------10-------10-------o||
||----------------------------------------|---------------------------------------||
||-- -------------------------------------|---------------------------------------||x10





    n  n  V  V  n  n  V  V  n  n  V  V  n  n  V  V     
||----------------------------------------------------|
||----------------------------------------------------|
||o----11-10-------11-10-------11-10-------11-10------|
||o-10-------11-10-------11-10-------11-10-------11---|
||----------------------------------------------------|
||----------------------------------------------------|

  n  n  V  V  n  n  V  V  n  n  V  V  n  n  V  V     
----------------------------------------------------|
----------------------------------------------------|
-----12-10-------12-10-------12-10-------12-10------|
--10-------12-10-------12-10-------12-10-------12---|
----------------------------------------------------|
----------------------------------------------------|

  n  n  V  V  n  n  V  V  n  n  V  V  n  n  V  V     
----------------------------------------------------|
----------------------------------------------------|
-----13-10-------13-10-------13-10-------13-10------|
--10-------13-10-------13-10-------13-10-------13---|
----------------------------------------------------|
----------------------------------------------------|

  n  n  V  V  n  n  V  V  n  n  V  V  n  n  V  V      
---------------------------------------------------||
---------------------------------------------------||
-----12-10-------12-10-------12-10-------12-10----o||
--10-------12-10-------12-10-------12-10-------12-o||
---------------------------------------------------||
---------------------------------------------------||x10




Chromatic exercises

    n  n  n  V  V  V  n  n  n  V  V  V       n  n  n  V  V  V  n  n  n  V  V  V      
||----------------------------------------|---------------------------------------||
||--------12-10-------------12-10---------|--------12-10-------------12-10--------||
||o----11-------11-------11-------11------|-----11-------11-------11-------11----o||
||o-10-------------12-10-------------12---|--10-------------12-10-------------12-o||
||----------------------------------------|---------------------------------------||
||----------------------------------------|---------------------------------------||x10





    n  n  n  n  V  V  V  V  n  n  n  n  V  V  V  V     
||-----------13-10-------------------13-10------------|
||--------12-------11-------------12-------11---------|
||o----11-------------12-------11-------------12------|
||o-10-------------------13-10-------------------13---|
||----------------------------------------------------|
||----------------------------------------------------|

  n  n  n  n  V  V  V  V  n  n  n  n  V  V  V  V      
-----------13-10-------------------13-10-----------||
--------12-------11-------------12-------11--------||
-----11-------------12-------11-------------12----o||
--10-------------------13-10-------------------13-o||
---------------------------------------------------||
---------------------------------------------------||x10





    n  n  n  n  n  V  V  V  V  V  n  n  n  n  n  V  V  V  V  V     
||--------------12-10-------------------------12-10---------------|
||-----------13-------11-------------------13-------11------------|
||o-------12-------------12-------------12-------------12---------|
||o----11-------------------13-------11-------------------13------|
||--10-------------------------12-10-------------------------12---|
||----------------------------------------------------------------|

  n  n  n  n  n  V  V  V  V  V  n  n  n  n  n  V  V  V  V  V      
--------------12-10-------------------------12-10--------------||
-----------13-------11-------------------13-------11-----------||
--------12-------------12-------------12-------------12-------o||
-----11-------------------13-------11-------------------13----o||
--10-------------------------12-10-------------------------12--||
---------------------------------------------------------------||x10





    n  n  n  n  n  n  V  V  V  V  V  V       n  n  n  n  n  n  V  V  V  V  V  V      
||-----------------11-10------------------|-----------------11-10-----------------||
||--------------12-------11---------------|--------------12-------11--------------||
||o----------13-------------12------------|-----------13-------------12----------o||
||o-------12-------------------13---------|--------12-------------------13-------o||
||-----11-------------------------12------|-----11-------------------------12-----||
||--10-------------------------------11---|--10-------------------------------11--||x10





    n  n  n  n  n     V     V  V  V  V       n  n  n  n  n     V     V  V  V  V
||--------------8h-12-12p8----------------|--------------8h-12-12p8---------------||
||-----------10-------------10------------|-----------10-------------10-----------||
||o-------9--------------------9----------|--------9--------------------9--------o||
||o----10-------------------------10------|-----10-------------------------10----o||
||--12-------------------------------12---|--12-------------------------------12--||
||----------------------------------------|---------------------------------------|||x10

Добавлено: 04.07.2015
Другие материалы по этой песне:

Страница создана 20.05.2014
http://primanota.ru/lessons-sweep-picking/basic-sweep-picking-exersises-warm-ups-chords.htm
Привет, Гость.
Предлагаем пройти революционный курс по гитаре.
Подарок от PrimaNota.Ru, забирай!