PrimaNota.ru - самый крупный в мире бесплатный архив песенных текстов, аккордов, табулатур и нот


Lesson Guitar - Warm Up Exercise - таба, видео

Регистрация Запомнить меня
Войти через:  Facebook Google Twitter Vk Yandex Mail.ru

Lesson Guitar - Warm Up Exercise - таба, видео

Печатать
Просмотров: 75
Уроки эстрадного вокала в Санкт-Петербурге
----------------------------------------------------------------------------------------------
                    Warm Up Exercise - Guitar Realm ( Daniel Mamutov ) 
----------------------------------------------------------------------------------------------
Tabbed by: Guitar Realm 
Youtube Channel : Guitar Realm

Tuning: Standard

e|------------------------|------------------------|--------------------------------------|
B|------------------------|------------------------|--------------------------------------|
G|------------------------|------------------------|--------------------------------------|
D|--------2--3--5--3--2---|--------2--3--5--2--3---|--------2--3--5--3-----2--------------|
A|--3--5-----------------5|--3--5-----------------5|--3--5--------------5-----------------|
E|------------------------|------------------------|--------------------------------------|
    I  M  I  M  A  M  I  M   I  M  I  M  A  M  I  M   I  M  I  M  A  M  I  M

e|------------------------|------------------------|-----------------------------|--------|
B|------------------------|------------------------|-----------------------------|--------|
G|------------------------|------------------------|-----------------------------|--------|
D|--------2--5--3--2--3---|-----2-----3--2--5--2---|--5--2--3-----2--------3-----|--------|
A|--3--5-----------------5|--3-----5--------------5|-----------5-----3--5--------|---3----|
e|------------------------|------------------------|-----------------------------|--------|
    I  M  I  M  A  M  I  M   I  M  I  M  A  M  I  M   I  M  I  M  A  M  I  M         P

Just play every block with the fingers : I M I M A M I M 
Of course the last not :D play it with your thumb 

When it's too hard play the song just with these finger : I M I M I M I M
                             
                |---------------------------------------|--------------|---------|
                | 1. Play every block 8x times          |GOOD EXERCISES|         |
                | 2. Play every block 4x times          |--------------|         | 
                | 3. Play every block 2x times                                   |
                | 4. Play the song through . First slowly then faster and faster!| 
                |----------------------------------------------------------------|

Hope you and your fingers have fun! :)
                         



Добавлено: 23.03.2016
Другие материалы по этой песне:

Страница создана 01.06.2012
http://primanota.ru/lesson-guitar/warm-up-exercise-chords.htm
Привет, Гость.
Предлагаем пройти революционный курс по гитаре.
Подарок от PrimaNota.Ru, забирай!