PrimaNota.ru - самый крупный в мире бесплатный архив песенных текстов, аккордов, табулатур и нот


Lesson Guitar - Pentatonic Major Scale And Licks In A - таба, видео

Регистрация Запомнить меня
Войти через:  Facebook Google Twitter Vk Yandex Mail.ru

Lesson Guitar - Pentatonic Major Scale And Licks In A - таба, видео

Печатать
Просмотров: 174
A Major Pentatonic Pattern

e|---------------------5-7-|
B|-----------------5-7-----|
G|-------------4-6---------| Altern. Picking
D|---------4-7-------------|
A|-----4-7-----------------|
E|-5-7---------------------|
   ^ v ^ v ^ v ^ v ^ v ^ v 

A Major Pentatonic (3 notes per String)

e|--------------------------------5-7-10-|
B|-------------------------5-7-10--------|
G|-------------------4-6-9---------------| Here you can use
D|-------------4-7-9---------------------| Sweep Picking
A|-------4-7-9---------------------------|
E|-5-7-9---------------------------------|                                      
^ v ^ ^ v ^ ^ v ^ ^ v ^ ^ v  ^ ^ v ^   
                                                                       
Lick 1  

e|---------------------------------------------5-7-|
B|---------------------------------5-------5-7-----|
G|---------------------4-------4-6---6-4-6---------| Altern picking 
D|---------4-------4-7---7-4-7---------------------| 
A|-----4-7---7-4-7---------------------------------|
E|-5-7---------------------------------------------|
   

Lick 2

e|-------------------------------------5-7-|
B|---------------------------------5-7-----|
G|---------------------4-6-----4-6---------|I Pick it this way 
D|---------4-7-----4-7-----4-7-------------| 
A|-----4-7-----4-7-------------------------|
E|-5-7-------------------------------------|
   ^ v ^ v ^ v v ^ ^ v ^ v v ^ ^ v ^ v ^ v  

Lick 3

e|-----------------------------5-7-|
B|-------------------------5-7-----|
G|---------------------4-6---------| Altern Picking
D|-------------4---4-7-------------|
A|-----4---4-7---7-----------------|
E|-5-7---7-------------------------|
   ^ v ^ v ^ v ^ v ^ v ^ v ^ v ^ v

Lick 4

e|-------------------------------------------------------------5-7-|
B|-------------------------------------------------5-------5-7-----|
G|-------------------------------------4-------4-6---6-4-6---------| Altern 
D|---------------------4-------4-7-4-7---7-4-7---------------------| Picking
A|-----4-------4-7-4-7---7-4-7-------------------------------------|
E|-5-7---7-5-7-----------------------------------------------------|
   v ^ ^ v ^ v ^ v ^ v ^ v ^ v ^ v ^ v ^ v ^ v ^ v ^ v ^ v ^ v ^ v
Добавлено: 26.04.2012
Другие материалы по этой песне:
  • Аккорды и текст

Страница создана 26.04.2012
http://primanota.ru/lesson-guitar/pentatonic-major-scale-and-licks-in-a-chords.htm
Привет, Гость.
Предлагаем пройти революционный курс по гитаре.
Подарок от PrimaNota.Ru, забирай!