PrimaNota.ru - самый крупный в мире бесплатный архив песенных текстов, аккордов, табулатур и нот


Lesson Guitar - Matt Schofield - 12 Bar Blues Lesson - таба, видео

Регистрация Запомнить меня
Войти через:  Facebook Google Twitter Vk Yandex Mail.ru

Lesson Guitar - Matt Schofield - 12 Bar Blues Lesson - таба, видео

Печатать
Просмотров: 148
Уроки эстрадного вокала в Санкт-Петербурге
Title: Matt Schofield 12 Bar Blues lesson
Artist: Matt Schofield 
Album: 
Author: Ferdi69 

http://www.mattschofield.net/index.html

See also the video on youtube: http://www.youtube.com/watch?v=GnCQU_QMCMQ

Track 1: Spur 1

E|---------------------|-5----5----5----5----|---------------------|-----------5----5----|
B|-7----7----7----6----|-5----5----5----5----|-7----7----7----8----|-7----7----6----6----|
G|-6----6----6----6----|-5----5----5----5----|-6----6----6----7----|-6----6----6----6----|
D|-5----5----5----5----|-4----4----4----4----|-5----5----5----6----|-5----5----5----5----|
A|---------------------|-5----5----5----5----|---------------------|---------------------|
E|-5----5----5----5----|---------------------|-5----5----5----6----|-5----5----5----5----|


E|-5----5----5----5----|-5----5----5----5----|---------------------|-----------3----3----|
B|-5----5----5----5----|-5----5----5----5----|-7----7----6----6----|-5----5----4----4----|
G|-5----5----5----5----|-4----4----4----4----|-6----6----5----5----|-4----4----3----3----|
D|-4----4----4----4----|-3----3----3----3----|-5----5----4----4----|-3----3----2----2----|
A|-5----5----5----5----|---------------------|---------------------|---------------------|
E|---------------------|-3----3----3----3----|-5----5----4----4----|-3----3----2----2----|


E|-9----9----9----9----|-8----8----8----8----|-7----7----10---10---|-8----8----8----8----|
B|-7----7----7----7----|-8----8----8----8----|-7----7----10---10---|-8----8----8----8----|
G|-7----7----7----7----|-7----7----7----7----|-6----6----9----9----|-8----8----7----7----|
D|-7----7----7----7----|-6----6----6----6----|-5----5----8----8----|-7----7----6----6----|
A|---------------------|---------------------|---------------------|---------------------|
E|-7----7----7----7----|-6----6----6----6----|-5----5----8----8----|-7----7----6----6----|
Добавлено: 31.05.2012
Другие материалы по этой песне:

Страница создана 31.05.2012
http://primanota.ru/lesson-guitar/matt-schofield-12-bar-blues-lesson-chords.htm
Привет, Гость.
Предлагаем пройти революционный курс по гитаре.
Подарок от PrimaNota.Ru, забирай!