PrimaNota.ru - самый крупный в мире бесплатный архив песенных текстов, аккордов, табулатур и нот


Lesson Guitar - Fingering Warm Ups - таба, видео

Регистрация Запомнить меня
Войти через:  Facebook Google Twitter Vk Yandex Mail.ru

Lesson Guitar - Fingering Warm Ups - таба, видео

Печатать
Просмотров: 49
Уроки эстрадного вокала в Санкт-Петербурге
----------------------------------------------------------------- 
Ryan Crane - Fingering Warm Ups
----------------------------------------------------------------- 
Tabbed by: Ryan Crane
Email: Ryancrane2016@gmail.com

Tuning: Drop C#

Increasingly more difficult, practice to a metronome.
fingerings are: 1-Pointer 2- Middle 3-ring 4-pinky

    2-3-1-3-1-3-2-3-1-3-1-3
D#|-------------------------|
A#|-----3-5-3-------3-5-3---|
F#|-4-5-------5-4-5-------5-|
C#|-------------------------|      #1
G#|-------------------------|
C#|-------------------------|

    1-4-1-2-3-1-2-3
D#|-------------------------|
A#|-------------------------|
F#|-----------5-6-7---------|
C#|-----5-6-7---------------|      #2
G#|-5-8---------------------|
C#|-------------------------|

    1-3-4-1-2-1-4-3
D#|-------------------------|
A#|-------------------------|
F#|-------------------------|
C#|-------------------------|      #3
G#|-------3-4-3-------------|
C#|-3-5-6-------6-5---------|

    2-4-1-3-1-4-2-4-1-3-1-4
D#|-------------------------|
A#|-----1-3-1-------1-3-1---|
F#|-2-4-------4-2-4-------4-|
C#|-------------------------|      #4
G#|-------------------------|
C#|-------------------------|

    1-3-4-1-3-2-1-3
D#|-------------------------|
A#|-----------6-------------|
F#|-------------5-----------|
C#|-------5-7-----7---------|      #5
G#|-5-7-8-------------------|
C#|-------------------------|

    1-3-4-1-3-1-3-4-2-1-3
D#|-------------------------|
A#|-----------------6-------|
F#|-------5-----------5-----|
C#|---7-----7---7-------7---|     #6
G#|-5---8-----5---8---------|
C#|-------------------------|

| /  slide up
| \  slide down
| h  hammer-on
| p  pull-off
| s  strumming swell
| b   Bend
| pb  Pre-bend
| br  Bend release
| pbr Pre-bend release
| brb Bend release bend
| "  pick scratch
| ~  vibrato
| *  pinch harmonic
| >  sustain note
| +  harmonic
| x  Mute note
Добавлено: 04.12.2015
Другие материалы по этой песне:
  • Аккорды и текст

Страница создана 04.12.2015
http://primanota.ru/lesson-guitar/fingering-warm-ups-chords.htm
Привет, Гость.
Предлагаем пройти революционный курс по гитаре.
Подарок от PrimaNota.Ru, забирай!