PrimaNota.ru - самый крупный в мире бесплатный архив песенных текстов, аккордов, табулатур и нот


Lesson Guitar - Finger Warm Ups - таба, видео

Регистрация Запомнить меня
Войти через:  Facebook Google Twitter Vk Yandex Mail.ru

Lesson Guitar - Finger Warm Ups - таба, видео

Печатать
Просмотров: 14
-----------------------------------------------------------------------------------
                               Finger Warm Ups - Daniel Mamutov ( Guitar Realm )
-----------------------------------------------------------------------------------
Tabbed by: Guitar Realm
Youtube Channel : Guitar Realm

Tuning: Standard

e|---------------------------------------------------------------------------------|
B|---------0---------0------------0------------0-----------0----------0------------|
G|-----------0---------0------------0------------0-----------0-----------0---------|
D|------0---------0------------0------------0-----------0-----------0--------------|
A|---------------------------------------3-----------2-----------0-----------------|
E|--3----------2-----------0-------------------------------------------------------|

e|---------0----------0----------0-------------------------------------------------|
B|-----------0----------0----------0--------0----------0-----------0---------------|
G|------0----------0----------0---------------0----------0------------0------------|
D|---3----------2----------0-------------0----------0-----------0------------------|
A|------------------------------------3----------2-----------0---------------------|
E|---------------------------------------------------------------------------------|

e|------------------------------------|----------------------------------------|
B|--------0---------0------------0----|----------------------------------------|
G|----------0---------0------------0--|----------------------------------------|
D|-----0----------0-----------0-------|----------------------------------------|
A|------------------------------------|------0---------------------------------|
E|--3-----------2----------0----------|---3-----0--2--3------------------------|


Play the song until the line ( third row) with P I A M 
Then behind the line ( third row) just play with your thumb ( P )
Hope your fingers enjoy it! :) 
Добавлено: 23.03.2016
Другие материалы по этой песне:

Страница создана 04.04.2012
http://primanota.ru/lesson-guitar/finger-warm-ups-chords.htm
Привет, Гость.
Предлагаем пройти революционный курс по гитаре.
Подарок от PrimaNota.Ru, забирай!