PrimaNota.ru - самый крупный в мире бесплатный архив песенных текстов, аккордов, табулатур и нот


Lesson Guitar - C Major Scale - Alternate Picking Riff - таба, видео

Регистрация Запомнить меня
Войти через:  Facebook Google Twitter Vk Yandex Mail.ru

Lesson Guitar - C Major Scale - Alternate Picking Riff - таба, видео

Печатать
Просмотров: 51
Уроки эстрадного вокала в Санкт-Петербурге
------------------------------------------------------------------------------- 
    C Major Scale - Alternate Picking  - Guitar Realm ( Daniel Mamutov ) 
-------------------------------------------------------------------------------
Tabbed by: Guitar Realm 
Youtube Channel : Guitar Realm
Tuning: Standard


1. Position
e|---------------------------------------------------------------------------|
B|------------------0--1--1--0-----------------------------------------------|
G|------------0--2--------------2--0-----------------------------------------|
D|----0--2--3-------------------------3--2--0--------------------------------|
A|-3--------------------------------------------3----------------------------|
E|---------------------------------------------------------------------------|


2.Position
e|---------------------------------------------------------------------------|
B|---------------------------------------------------------------------------|
G|-----------------2--4--5--5--4--2------------------------------------------|
D|--------2--3--5--------------------5--3--2---------------------------------|
A|--3--5--------------------------------------5--3---------------------------|
E|---------------------------------------------------------------------------|


Just play it few times a day and become faster . When you are really good at both scales you can use
a pick .

 Hope you and your fingers have fun! :)
Добавлено: 23.03.2016
Другие материалы по этой песне:

Страница создана 10.10.2014
http://primanota.ru/lesson-guitar/c-major-scale-alternate-picking-riff-chords.htm
Привет, Гость.
Предлагаем пройти революционный курс по гитаре.
Подарок от PrimaNota.Ru, забирай!