PrimaNota.ru - самый крупный в мире бесплатный архив песенных текстов, аккордов, табулатур и нот


Lesson Guitar - Beginner Exercises - Alternate Picking - таба, видео

Регистрация Запомнить меня
Войти через:  Facebook Google Twitter Vk Yandex Mail.ru

Lesson Guitar - Beginner Exercises - Alternate Picking - таба, видео

Печатать
Просмотров: 55
-------------------------------------------------------------------------------
  Beginner Exercises - Alternative Picking - Guitar Realm ( Daniel Mamutov ) 
-------------------------------------------------------------------------------
Tabbed by: Guitar Realm 
Youtube Channel : Guitar Realm 

Tuning: Standard

e|--7------7------7------7-------5------5------5-----5---------------|
B|----0------0------0------0-------0------0------0-----0-------------|
G|------0------0------0------0-------0------0------0-----0-----------|
D|-------------------------------------------------------------------|
A|-------------------------------------------------------------------|
E|-------------------------------------------------------------------|

e|---3-----3-----3-----3-----2-----2------2------2-----0-----0-----0------0------------|
B|-----0-----0-----0-----0-----0-----0------0------0-----0-----0-----0------0----------|
G|-------0-----0-----0-----0-----0-----0------0------0-----0-----0------0-----0--------|
D|-------------------------------------------------------------------------------------|
A|-------------------------------------------------------------------------------------|
E|-------------------------------------------------------------------------------------|

Pick the strings ( 7 5 3 2 ) on your left hand ( lefthanded people with the right hand ) with your 
forefinger . 

Just become faster! 

Just play the whole song with this fingers : A M I 
When it's too easy with : I A M 
And when you're badass play it with these fingers : I M A 

Hope you and your fingers have fun! :)

Добавлено: 23.03.2016
Другие материалы по этой песне:

Страница создана 06.05.2014
http://primanota.ru/lesson-guitar/beginner-exercises-alternate-picking-chords.htm
Привет, Гость.
Предлагаем пройти революционный курс по гитаре.
Подарок от PrimaNota.Ru, забирай!