PrimaNota.ru - самый крупный в мире бесплатный архив песенных текстов, аккордов, табулатур и нот


Lesson Guitar - Alex Laiho - Classical Bach - In Your Face Guitar - таба, видео

Регистрация Запомнить меня
Войти через:  Facebook Google Twitter Vk Yandex Mail.ru

Lesson Guitar - Alex Laiho - Classical Bach - In Your Face Guitar - таба, видео

Печатать
Просмотров: 154
|------------------------------------------------------|
|--------------------------------------------5---------|
|------------------------------------7-----6-----------|
|----------5-7-8----8-7--5---------7-----5-------------|
|--/5--7-8-------4---------8-7--8----------------------|
|------------------------------------------------------|

|-------3-5-6------6-5-3------------------3--5---------|
|-3-5-6---------2--------6-5-----6--3-5-6--------------|
|------------------------------------------------------|
|------------------------------------------------------|
|------------------------------------------------------|
|------------------------------------------------------|

|----5--3-----------------1--3---3--1------------------|
|---------6-5-3---5-1-3-5-------------5-3-1------------|
|--3---------------------------2-----------------------|
|------------------------------------------------------|
|------------------------------------------------------|
|------------------------------------------------------|

|------------------------------------------------------|
|-3-5-6--3-5-6--------------2-3-5--2-3-5---------------|
|----------------0(let ring)--------------0-5------3-2-|
|---------------------------------------3--------------|
|------------------------------------------------------|
|------------------------------------------------------|

|------------------------------------------------------|
|-1-------------1----------1-1-1h3p1h3(forduration,etc)|
|---3-2-0--------0h2-----------------------------------|
|---------3-2-3------3-2-3-----------------------------|
|------------------------------------------------------|
|------------------------------------------------------|


|------------------------------------------------------|
|-1------------1---------------------------------------|
|---3-2-0--------------0-2--3-2-0-----0----------0-2-3-|
|---------3-2----0-2-3------------3-2------0-2-3-------|
|----------------------------------------3-------------|
|------------------------------------------------------|


|-------0h1---1----------------------------------------|
|-1-3-5----------5-3--1-1--3-1-------------------------|
|------------1---------3-3-----3-2-0--2-------------0h2|
|---------------------------------------5-3-2-0--0-4---|
|-----------------------------------------------3------|
|------------------------------------------------------|


|------------------------------------------------------|
|---1-0----------------1---5-3-1------------1-3-5------|
|------2-0-------1-2-4-----------4-2--1-2-4------------|
|-0--------3--2-4--------3-----------------------------|
|------------------------------------------------------|
|------------------------------------------------------|

|---1-0-------5-4-2--5---------------------------------|
|------3-1-0--------5--5-3-1h3-0----0-1-3--------------|
|-2------------------------------2-----------2--3-0-2-3|
|----------------------------------------0-4-----------|
|------------------------------------------------------|
|------------------------------------------------------|

|------------------1-0-1--0--------3-5-6----6-5-3------|
|1-3---3-1-------------------3-5-6--------2-------6-5--|
|---------3-2-0--2-------0-----------------------------|
|----2-------------------------------------------------|
|------------------------------------------------------|
|------------------------------------------------------|

|---------------0----0-------------------------1-------|
|-6--3------3-2-----2--2-3--1--------3---------3-------|
|------0--0--------2--2------3-2-0-------------2-------|
|---------------------------------3------3-2-----------|
|------------------------------------------------------|
|------------------------------------------------------|

audoushred

Great Warmup For your Fingers,a must add to your practice routine
Добавлено: 06.01.2014
Другие материалы по этой песне:
  • Аккорды и текст

Страница создана 06.01.2014
http://primanota.ru/lesson-guitar/alex-laiho-classical-bach-in-your-face-guitar-chords.htm
Привет, Гость.
Предлагаем пройти революционный курс по гитаре.
Подарок от PrimaNota.Ru, забирай!