PrimaNota.ru - самый крупный в мире бесплатный архив песенных текстов, аккордов, табулатур и нот


Lesson Bass - Basic String Pop Practice 1 - бас-таба, видео

Регистрация Запомнить меня
Войти через:  Facebook Google Twitter Vk Yandex Mail.ru

Lesson Bass - Basic String Pop Practice 1 - бас-таба, видео

Печатать
Просмотров: 175
These tabs were made my me as tabs to use to practice your popping on the bass guitar.
tuning can be any of your choice, but it will be listed under the standard tuning here.
might not sound good when played, but they may help you with popping skill. p=popped 
h=hammer-on

Tab 1

E-0---0---0---0---0---------------------|
A---------------------------------------|
D---------------------------------------|
G---3---5---7---9---9-9-7-7-5-5-3-3-1-1-|
    p   p   p   p   p p p p p p p p p p

Tab 2

E-2--2-----2--2------------------------|
A---------------5-5--------------------|
D------5-5------5-5--------------------|
G------5-5-----------0-0-0-0-3-5-7-9---|
       p p      p p  p p p p p p p p

Tab 3

E--------------------------------------|
A-------------------------------3-3-3--|
D---------------------9-9-5-5-5-3-3-3--|
G-5-5-7-7-3-3-7-7-5-5-9-9--------------|
  p p p p p p p p p p p p p p p p p p

Tab 4

E-0--0--0-------------------------------|
A-0--0--0-------------------------------|
D---------------------------------1-1-1-|
G---------3h5-5h7-7h9-3h5-5h7-7h9-1-1-1-|
          p   p   p   p   p   p   p p p

Tab 5

E-0-000-0-000---------0-000-0-000------|
A--------------------------------------|
D---------------------------------9--9-|
G-------------9---9---------------9--9-|
              p   p               p  p
Добавлено: 13.04.2012
Вам также может быть интересно:
Другие материалы по этой песне:
  • Аккорды и текст

Страница создана 13.04.2012
http://primanota.ru/lesson-bass/basic-string-pop-practice-1-chords.htm
Привет, Гость.
Предлагаем пройти революционный курс по гитаре.
Подарок от PrimaNota.Ru, забирай!