PrimaNota.ru - самый крупный в мире бесплатный архив песенных текстов, аккордов, табулатур и нот


Less Than Lethal - Lost Places - таба, видео

Регистрация Запомнить меня
Войти через:  Facebook Google Twitter Vk Yandex Mail.ru

Less Than Lethal - Lost Places - таба, видео

Печатать
Просмотров: 71
Уроки эстрадного вокала в Санкт-Петербурге
-------------------------------------------------------------------------------
                           LOST PLACES - Less Than Lethal
-------------------------------------------------------------------------------
Tabbed by: LTL's Toni Gleesing
E-mail: paxatonicc@gmail.com

Rhythm Guitar tab

----
Intro
Verse x2
Pre-Chorus
Chorus
Riff (transition)
Verse
Pre-Chorus
Chorus
Riff (transition)
Bridge
Chorus
Riff (Half)
----

INTRO
e|---------------------------------------------------------------------------|
B|---------------------------------------------------------------------------|
G|---------------------------------------------------------------------------|
D|---------------------------------999---------------------------------------|
A|-55554444000000005555444400000000999---------------------------------------|
E|-55554444000000005555444400000000999---------------------------------------|

VERSE
e|---------------------------------------------------------------------------|
B|---------------------------------------------------------------------------|
G|---------------------------------------------------------------------------|
D|---------------------------------------------------------------------------|
A|-55554444000000005555444400000000------------------------------------------|
E|-55554444000000005555444400000000------------------------------------------|

e|---------------------------------------------------------------------------|
B|---------------------------------------------------------------------------|
G|---------------------------------------------------------------------------|
D|---------------------------------------------------------------------------|
A|-55554444000000005555444400000000------------------------------------------|
E|-55554444000000005555444400000000------------------------------------------|

e|---------------------------------------------------------------------------|
B|---------------------------------------------------------------------------|
G|---------------------------------------------------------------------------|
D|---------------------------------------------------------------------------|
A|-55554444000000005555444400000000------------------------------------------|
E|-55554444000000005555444400000000------------------------------------------|

e|---------------------------------------------------------------------------|
B|---------------------------------------------------------------------------|
G|---------------------------------------------------------------------------|
D|---------------------------------999---------------------------------------|
A|-55554444000000005555444400000000999---------------------------------------|
E|-55554444000000005555444400000000999---------------------------------------|

PRE CHORUS
e|---------------------------------------------------------------------------|
B|---------------------------------------------------------------------------|
G|---------------------------------------------------------------------------|
D|-7----9----5--------7----9----0--------------------------------------------|
A|-7----9----5--------7----9----0--------------------------------------------|
E|-7----9----5--------7----9----0--------------------------------------------|

CHORUS
e|---------------------------------------------------------------------------|
B|---------------------------------------------------------------------------|
G|---------------------------------------------------------------------------|
D|-7/95555555555555555-------------------------------------------------------|
A|-7/95555555555555555-------------------------------------------------------|
E|-7/95555555555555555-------------------------------------------------------|

e|---------------------------------------------------------------------------|
B|---------------------------------------------------------------------------|
G|---------------------------------------------------------------------------|
D|-7/90000000000000000-------------------------------------------------------|
A|-7/90000000000000000-------------------------------------------------------|
E|-7/90000000000000000-------------------------------------------------------|

e|---------------------------------------------------------------------------|
B|---------------------------------------------------------------------------|
G|---------------------------------------------------------------------------|
D|-7/95555555555555555-------------------------------------------------------|
A|-7/95555555555555555-------------------------------------------------------|
E|-7/95555555555555555-------------------------------------------------------|


e|---------------------------------------------------------------------------|
B|---------------------------------------------------------------------------|
G|---------------------------------------------------------------------------|
D|-7/95555555555555555-------------------------------------------------------|
A|-7/95555555555555555-------------------------------------------------------|
E|-7/95555555555555555-------------------------------------------------------|


RIFF
e|---------------------------------------------------------------------------|
B|---------------------------------------------------------------------------|
G|-----------------------------------------------75--------------------------|
D|-00-02-02-02-024--00-02-02-02-024--00-02-02-02-00--00-02-02-02-0-----------|
A|-00-02-02-02-024--00-02-02-02-024--00-02-02-02-53--00-02-02-02-0-----------|
E|-00-02-02-02-024--00-02-02-02-024--00-02-02-02-----00-02-02-02-0-----------|


Bridge
e|---------------------------------------------------------------------------|
B|---------------------------------------------------------------------------|
G|---------------------------------------------------------------------------|
D|-77------55------33------22------77------55------33------22----------------|
A|-77------55------33------22------77777777555555553333333322222222----------|
E|-77------55------33------22------77777777555555553333333322222222----------|

e|---------------------------------------------------------------------------|
B|---------------------------------------------------------------------------|
G|---------------------------------------------------------------------------|
D|-77------55------33------22------77------55------33------22222222----------|
A|-7777777755555555333333332222222277777777555555553333333322222222----------|
E|-7777777755555555333333332222222277777777555555553333333322222222----------|

e|---------------------------------------------------------------------------|
B|---------------------------------------------------------------------------|
G|---------------------------------------------------------------------------|
D|-7777777755555555333333332222222277777777555555553333333322222222----------|
A|-7777777755555555333333332222222277777777555555553333333322222222----------|
E|-7777777755555555333333332222222277777777555555553333333322222222----------|



************************************

| /   slide up
| \   slide down
| h   hammer-on
| p   pull-off
| ~   vibrato
| +   harmonic
| x   Mute note
| b   Bend
| pb  Pre-bend
| br  Bend release
| pbr Pre-bend release
| brb Bend release bend

************************************
Добавлено: 21.06.2016
Другие материалы по этой песне:
  • Аккорды и текст

Страница создана 21.06.2016
http://primanota.ru/less-than-lethal/lost-places-chords.htm
Привет, Гость.
Предлагаем пройти революционный курс по гитаре.
Подарок от PrimaNota.Ru, забирай!