PrimaNota.ru - самый крупный в мире бесплатный архив песенных текстов, аккордов, табулатур и нот


Less Than Jake - Younger Lungs - таба, видео

Регистрация Запомнить меня
Войти через:  Facebook Google Twitter Vk Yandex Mail.ru

Less Than Jake - Younger Lungs - таба, видео

Печатать
Просмотров: 63
------------------------------------------------------------------
                 Younger Lungs by Less Than Jake
------------------------------------------------------------------
Tabbed by LesThanPaul
Standard Tuning

A great song off of their most recent EP. Should be pretty straight 
forward. Please leave comments/corrections and don't forget to rate!

Intro
e|----|
B|----|
G|----|
D|-6~-|
A|-6~-|
E|-4~-|

e|-------------9-----------------------9-----------|
B|-9---9-11-12---12--11-12-----9-11-12---12--11-12-|
G|-------------------------9-----------------------|
D|[6]---------------------[2]----------------------|
A|[6]---------------------[2]----------------------|
E|[4]---------------------[0]----------------------|

e|-------------9-----------------------9-------------|
B|-9---9-11-12---12--11-12-----9-11-12---12--11-12-9-|
G|-------------------------9-------------------------|
D|[6]---------------------[2]------------------------|
A|[6]---------------------[2]------------------------|
E|[4]---------------------[0]------------------------|


Verse
e|-------------------------------------------|
B|-------------------------------------------|
G|-------------------------------------------|
D|-66-44-2222-66-44-2222-66-44-2222-44444444-| X2
A|-66-44-2222-66-44-2222-66-44-2222-44444444-|
E|-44-22-0000-44-22-0000-44-22-0000-22222222-|

Pre Chorus
e|----------------------------------------------|
B|----------------------------------------------|
G|-------------------------------------4-4-4-44-|
D|-22222222-44444444-22222222-44444444-4-4-4-44-|
A|-22222222-44444444-22222222-44444444-2-2-2-22-|
E|-00000000-22222222-00000000-22222222----------|

Chorus
e|----------------------------------------------------------------|
B|----------------------------------------------------------------|
G|----------44444444----------44444444----------44444444----------|
D|-22222222-44444444-44444444-44444444-22222222-44444444-44444444-|
A|-22222222-22222222-44444444-22222222-22222222-22222222-44444444-|
E|-00000000----------22222222----------00000000----------22222222-|

Bridge
e|------------------------------------------------|
B|------------------------------------------------|
G|-44444444-66-666-66-----------66-666-66------4~-|
D|-44444444-66-666-66-44-444-44-66-666-66-4~---4~-|
A|-22222222-44-444-44-44-444-44-44-444-44-4~---2~-|
E|--------------------22-222-22-----------2~------|

e|-----------------------------------------|
B|---4----4----4----4----4----4----4----4--|
G|--4-4--4-4--6-6--6-6--4-4--4-4--6-6--6-6-|
D|-2----2----4----4----2----2----4----4----|
A|-----------------------------------------|
E|-----------------------------------------|

e|-------------------------------------|
B|---4----4----4----4----4-------------|
G|--4-4--4-4--6-6--6-6--4-4-6--4--4444-|
D|-2----2----4----4----2----6--4--4444-|
A|--------------------------4--2--2222-|
E|-------------------------------------|

Final Chorus/Outro
e|-----------------------------------------------------------------|
B|-----------------------------------------------------------------|
G|----------44444444----------44444444----------44444444-----------|
D|-22222222-44444444-44444444-44444444-22222222-44444444-6666-5555-|
A|-22222222-22222222-44444444-22222222-22222222-22222222-6666-5555-|
E|-00000000----------22222222----------00000000----------4444-3333-|

e|----------------------------------------------------------------|
B|----------------------------------------------------------------|
G|----------44444444-66666666-44444444----------44444444-6~-6~-4~-|
D|-22222222-44444444-66666666-44444444-22222222-44444444-6~-6~-4~-|
A|-22222222-22222222-44444444-22222222-22222222-22222222-4~-4~-2~-|
E|-00000000----------------------------00000000-------------------|
Добавлено: 06.11.2013
Другие материалы по этой песне:
  • Аккорды и текст

Страница создана 06.11.2013
http://primanota.ru/less-than-jake/younger-lungs-chords.htm
Привет, Гость.
Предлагаем пройти революционный курс по гитаре.
Подарок от PrimaNota.Ru, забирай!