PrimaNota.ru - самый крупный в мире бесплатный архив песенных текстов, аккордов, табулатур и нот


Less Than Jake - The Space They Cant Touch - текст песни, бас-таба, видео

Регистрация Запомнить меня
Войти через:  Facebook Google Twitter Vk Yandex Mail.ru

Less Than Jake - The Space They Cant Touch - текст песни, бас-таба, видео

Печатать
Просмотров: 90
Band: Less Than Jake
Album: GNV FLA
Song: The Space They Can't Touch

Comments and corrections are welcome

Please Rate

Intro:

G|------------------|
D|------------------| 
A|-5---5------------|
E|---------3---5----|

G|------------------|
D|------------------| 
A|-5-5-5-5----------|
E|---------3-335-55-|

G|------------------|
D|------------------| 
A|-55555555---------|
E|---------33335555-|

G|------------------|
D|------------------| 
A|-5-5-5-5-------4--|
E|--------3-3-35----|

Verse (0:09) x2

G|---------------------------------|
D|---4---4-----------7-54----5-4---| 
A|-55-5-5----20-045-5----5-77---5--|
E|---------33--------------------5-|

G|---------------------------------|
D|---4---4-----------0-4-0-54-2-4--| 
A|-55-5-5----20-045-2--------------|
E|---------33----------------------|

Pre-chorus 0:30

G|----------------|
D|--0-4-0---------| 
A|-2--------------|
E|-------55555555-|

Chorus (0:32)

G|----------------|
D|----------------| 
A|-5---5-57\------| 
E|----5-5------35-|

G|----------------|
D|----------------| 
A|-5--5-5-57\-----| 
E|---5---5-----35-|

G|-----------------------------------|
D|-----------------------------------| 
A|-5--5-5-5---5-45----5-45-----------| 
E|---5---5-7-7-----5-5-----3-3333333-|

G|----------------|
D|----------------| 
A|-5---5-57\------| 
E|----5-5------35-|

G|----------------|
D|----------------| 
A|-5--5-5-57\-----| 
E|---5---5-----35-|

G|-----------------------------------|
D|-----------------------------------| 
A|-5--5-5-5-----------5-45-----------| 
E|---5---5-7-77777-5-5-----3-3333333-|

Repeat:

Verse (0:54) x2
Pre-chorus (1:14)
Chorus (1:17)

Bridge (1:38)

G|------------------|
D|------4/5-5555555-| 
A|-7-777------------|
E|------------------|

G|------------------|
D|-------------5555-| 
A|-555555553333-----|
E|------------------|

G|------------------|
D|------4/5-5555555-| 
A|-7-777------------|
E|------------------|

G|------------------|
D|------------------| 
A|-555555553333-----|
E|-------------3333-|

G|------------------|
D|------4/5-5557777-| 
A|-7-777------------|
E|------------------|

G|----------------------------------|
D|-------------------------55442244-| 
A|-5-55----3-33----2-22---2---------|
E|----------------------------------|

Repeat Verse (1:57)

Pre-chorus 2

G|----------------|
D|--0-2-077777777-| 
A|-2--------------|
E|----------------|

Chorus 2 (2:10) stepping it up

G|----------------|
D|----------------| 
A|-7---7-79\------| 
E|----7-7------57-|

G|----------------|
D|----------------| 
A|-7--7-7-79\-----| 
E|---7---7-----57-|

G|-----------------------------------|
D|-----------------------------------| 
A|-7--7-7-7---7-67----7-67-----------| 
E|---7---7-9-9-----7-7-----5-5555555-|

G|----------------|
D|----------------| 
A|-7---7-79\------| 
E|----7-7------57-|

G|----------------|
D|----------------| 
A|-7--7-7-79\-----| 
E|---7---7-----57-|

G|-----------------------------------|
D|-----------------------------------| 
A|-7--7-7-7-----------7-67-----------| 
E|---7---7-9-99999-7-7-----5-5555555-|

Ending: (2:31)

G|-----------------------------------|
D|-----------------------------------| 
A|-7-777777-----------7-67-----------| x2 
E|---------9-99999-7-7-----5-5555555-|

End note (2:41)

G|------------------|
D|------------------| 
A|------------------|
E|-0~---------------|
Добавлено: 25.04.2012
Другие материалы по этой песне:
  • Аккорды и текст

Страница создана 25.04.2012
http://primanota.ru/less-than-jake/the-space-they-cant-touch-chords.htm
Привет, Гость.
Предлагаем пройти революционный курс по гитаре.
Подарок от PrimaNota.Ru, забирай!