PrimaNota.ru - самый крупный в мире бесплатный архив песенных текстов, аккордов, табулатур и нот


Less Than Jake - The Brightest Bulb Has Burned Out - аккорды и текст, видео

Регистрация Запомнить меня
Войти через:  Facebook Google Twitter Vk Yandex Mail.ru

Less Than Jake - The Brightest Bulb Has Burned Out - аккорды и текст, видео

Печатать
Просмотров: 89
The Brightest Bulb Has Burned Out
Less Than Jake
Band:       Less Than Jake
Album:      Anthem
Song:       The Brightest Bulb Has Burned Out (Track 13)
Tabbed By:  Steven Coleman (short_fuse_burning@hotmail.com)


This is my second tab from the new Less Than Jake album, let me know what
you think!

P.S. Listen to where the palm muting is played, because for this song it
is very hard to show
where all the part muting is, its not too hard when you listen to the
song, I will show where
some palm muting is but not all. And listen to the song for strumming
techniques, its easy when
you hear it.


                          'you say that your 20 years...'
e|----------------------| |--------------------------------------|
B|----------------------| |--------------------------------------|
G|----------------------| |--------------------------------------|
D|------------------7-7-| |------------------66666666-77777777---| x2
A|----7-77777777777-5-5-| |-7-77777777777777-44444444-55555555---|
E|----5-55555555555-----| |-5-55555555555555---------------------|
        |---pm----|           |----pm------|


'that you're feeling more...'
e|--------------------------------------------------|
B|--------------------------------------------------|
G|--------------------------------------------------|
D|-----------777777-------------------------777777--|
A|----555555-555555-7-7777777777777--555555-555555--|
E|----333333--------5-5555555555555--333333---------|
                      |----pm-----|


'so i'll let you know...'
e|----5-5-5-5--5-5-5-5--2-2-2-2--5-5-5-5----|
B|----5-5-5-5--7-7-7-7--2-2-2-2--7-7-8-8----|
G|----6-6-6-6--7-7-7-7--2-2-2-2--7-7-7-7----|
D|----7-7-7-7--5-5-5-5--4-4-4-4--7-7-7-7----| x 2
A|----7-7-7-7--5-5-5-5--4-4-4-4--5-5-5-5----|
E|----5-5-5-5-----------2-2-2-2-------------|


On the second chorus it plays two times through, and then the songs ends
with:

'but sometimes....'
e|-------------------------|
B|-------------------------|
G|-------------------------|
D|-------------------------|
A|----5-5555555555555/7-7--|
E|----3-3333333333333/5-5--| 

and then into Screws Fall Out, which I haven't tabbed yet.

I hope this tab helps you out, if you see errors or know where I've gone
wrong please contact me
at short_fuse_burning@hotmail.com, cheers :) Seeya!
     
Добавлено: 26.10.2013
Другие материалы по этой песне:
  • Аккорды и текст

Страница создана 31.03.2012
http://primanota.ru/less-than-jake/the-brightest-bulb-has-burned-out-chords.htm
Привет, Гость.
Предлагаем пройти революционный курс по гитаре.
Подарок от PrimaNota.Ru, забирай!