PrimaNota.ru - самый крупный в мире бесплатный архив песенных текстов, аккордов, табулатур и нот


Less Than Jake - That's Why They Call It A Union - аккорды и текст, таба, видео

Регистрация Запомнить меня
Войти через:  Facebook Google Twitter Vk Yandex Mail.ru

Less Than Jake - That's Why They Call It A Union - аккорды и текст, таба, видео

Печатать
Просмотров: 181
That's Why They Call It A Union
Less Than Jake
Band:       Less Than Jake
Album:      Anthem
Song:       That's Why They Call It A Union (Track 11)
Tabbed By:  Steven Coleman (short_fuse_burning@hotmail.com)

After buying Less Than Jake's new album Anthem (which, by the way, is
brilliant) I decided I wanted to tab as many of the songs from the album
as possible, so I started with this great song.

INTRO:
e|--------------------|    |-----------------------------------------------|
B|--------------------|    |-----------------------------------------------|
G|----7-------9-------|    |---7-------------------------------------------|
D|----7---7---9---5---|   then:|----7---7---5-5-5-5-5-5-5-5-5-5-5-5-5-5-5-5----|
A|----5---7---7---5---|    |----5---7---5-5-5-5-5-5-5-5-5-5-5-5-5-5-5-5----|
E|--------5-------3---|    |--------5---3-3-3-3-3-3-3-3-3-3-3-3-3-3-3-3----|

CHORUS:
e|------------------------------------------|
B|------------------------------------------|
G|-------------------------------7-7-7-7----|
D|----7-7-7-7--4-4-4-4--5-5-5-5--7-7-7-7----|
A|----7-7-7-7--4-4-4-4--5-5-5-5--5-5-5-5----|
E|----5-5-5-5--2-2-2-2--3-3-3-3-------------|

VERSE: (mess about with arpeggios after each chord, listen to the song to
get what i mean)
e|----5----3----5----5----|
B|----5----3----5----5----|
G|----6----4----7----6----|
D|----7----5----7----7----|
A|----7----5----5----7----|
E|----5----3---------5----|

PRE-CHORUS:
e|-------------------------------------------|
B|-------------------------------------------|
G|----7-7-7-7-----------9-9-9-9--11-11-9-9---|
D|----7-7-7-7--7-7-7-7--9-9-9-9--11-11-9-9---|
A|----5-5-5-5--7-7-7-7--7-7-7-7--9--9--7-7---|
E|-------------5-5-5-5-----------------------|

BRIDGE:
e|--------------------------------------------------------------------------|
B|--------------------------------------------------------------------------|
G|---------------------9-9-9-9-9-9-9-9-------------------7-7-7-7-7-7-7-7----|
D|----9-9-9-9-9-9-9-9--9-9-9-9-9-9-9-9--7-7-7-7-7-7-7-7--7-7-7-7-7-7-7-7----|
A|----9-9-9-9-9-9-9-9--7-7-7-7-7-7-7-7--7-7-7-7-7-7-7-7--5-5-5-5-5-5-5-5----|
E|----7-7-7-7-7-7-7-7-------------------5-5-5-5-5-5-5-5---------------------|

e|--------------------------------------------------------------------------|
B|--------------------------------------------------------------------------|
G|---------------------9-9-9-9-9-9-9-9--------------------------------------|
D|----9-9-9-9-9-9-9-9--9-9-9-9-9-9-9-9--7-7-7-7-7-7-7-7-7-7-7-7-7-7-7-7-----|
A|----9-9-9-9-9-9-9-9--7-7-7-7-7-7-7-7--7-7-7-7-7-7-7-7-7-7-7-7-7-7-7-7-----|
E|----7-7-7-7-7-7-7-7-------------------5-5-5-5-5-5-5-5-5-5-5-5-5-5-5-5-----|

ORDER:

Intro
Chorus x 2
Verse x 2
Pre-Chorus x 3
Chorus x 4
Verse x 1
Pre-Chorus x 3
Chorus x 4
Bridge
Intro x 3 then second part of intro
Chorus x 6
then:

e|------------------------------------|
B|------------------------------------|
G|---------------------------7--------|
D|----7-7-7-7--4-4-4-4---5---7---7----|
A|----7-7-7-7--4-4-4-4---5---5---7----|
E|----5-5-5-5--2-2-2-2---3-------5----|


There we go :)
Sorry if its completely wrong, but its my first try and it sounds alright
to me!
Email me if you like: short_fuse_burning@hotmail.com :) Seeya!
     
Добавлено: 31.10.2013
Другие материалы по этой песне:

Страница создана 04.05.2012
http://primanota.ru/less-than-jake/thats-why-they-call-it-a-union-chords.htm
Привет, Гость.
Предлагаем пройти революционный курс по гитаре.
Подарок от PrimaNota.Ru, забирай!