PrimaNota.ru - самый крупный в мире бесплатный архив песенных текстов, аккордов, табулатур и нот


Less Than Jake - Still Life Franchise - текст песни, таба, бас-таба, видео

Регистрация Запомнить меня
Войти через:  Facebook Google Twitter Vk Yandex Mail.ru

Less Than Jake - Still Life Franchise - текст песни, таба, бас-таба, видео

Печатать
Просмотров: 148
----------------------------------------------------------------------------------------
                Still Life Franchise - Less than Jake
-----------------------------------------------------------------------------------------

Tabbed by: Adam P
Email: stigmaguitardude@hotmail.com

Tuning: E Standard (EADGBE)

Just listen to the song for the exact rhythms. It's not too difficult to figure out.

Intro:
E|--6----------------|               E|-----|
B|-----7-------------|               B|--7--|
G|-------8------8----|  x2 then play G|--8--|
D|----------8-----8--|  before verse D|--8--|
A|------------6------|               A|-----|
E|-------------------|               E|-----|
      Let ring                           U
Verse 1&2: Clean
E|--6--6----6--6--6--6--6--6----2--2--2--2--2--2--2--2-|
B|--7--7----7--7--7--7--7--7----4--4--4--4--2--2--2--2-|
G|--8--8----8--8--8--8--8--8----4--4--4--4--3--3--3--3-| x6
D|--8--8----8--8--8--8--8--8----4--4--4--4--4--4--4--4-|
A|--6--6----6--6--6--6--6--6----2--2--2--2--4--4--4--4-|
E|------------------------------------------2--2--2--2-|
    Played mostly clean with a hint of overdrive. All ska upstrokes

Chorus 1:Distorted
E|-------------------------------------------------------------------------
B|-------------------------------------------------------------------------
G|--6--6--6--6--6--6--6--6--------------------------4--4--4--4--4--4--4--4-
D|--6--6--6--6--6--6--6--6--6--6--6--6--6--6--6--6--4--4--4--4--4--4--4--4- x2
A|--4--4--4--4--4--4--4--4--6--6--6--6--6--6--6--6--2--2--2--2--2--2--2--2-
E|--------------------------4--4--4--4--4--4--4--4-------------------------
    To get a better sense of the rhythm, each chord is played in 4 beat   measures

-------------------------|
-------------------------|
-------------------------|
-2--2--2--2--2--2--2--2--|
-2--2--2--2--2--2--2--2--|
-2--2--2--2--2--2--2--2--|

Verse 2 x6

Chorus 2 x3
E|-----------------------------|
B|-----------------------------|
G|-----------------------------|
D|-----------------------------|
A|--5--5--5--5--5--5--5--5--5--|
E|--2--2--2--2--2--2--2--2--2--|
    Play this in place of the Gb the 3rd repeat of the chorus line.
    **I'm not 100% sure about this chord, I can't really make it out.   Please  let me 
if you figure it out!

Bridge:Distorted
E|--6--6--6--6--6--6--6--6-----------------------------|
B|--7--7--7--7--7--7--7--7-----------------------------|
G|--8--8--8--8--8--8--8--8---4-------------------------|
D|--8--8--8--8--8--8--8--8---4------------4------------| x4
A|--6--6--6--6--6--6--6--6---2------------4------------|
E|----------------------------------------2------------|
   The Eb is played with ska upstrokes the same as in the verses
    The B and Gb are half notes held for 2 beats each

Chorus 3 x3

Ending
E|---------------------------------------------------------------------|
B|---------------------------------------------------------------------|
G|--6--6--6--6--6--6--6--6--------------------------4------------------|
D|--6--6--6--6--6--6--6--6--6--6--6--6--6--6--6--6--4---------4--------|
A|--4--4--4--4--4--4--4--4--6--6--6--6--6--6--6--6--2---------4--------|
E|--------------------------4--4--4--4--4--4--4--4------------2--------|
    *  *  *  *  *  *  *  *  *  *  *  *  *  *  *  *
    Double the amount of each palm mute so it's actually 16th notes
    Hold the B and Gb for 2 beats each

| /  slide up
| \  slide down
| h  hammer-on
| p  pull-off
| ~  vibrato
| +  harmonic
| x  Mute note

Not too hard of a song. If something doesn't make sense, any questions, or comments just 
me.
This is my first tab so hopefully this works for you!

==================================================================================
Добавлено: 22.05.2012
Другие материалы по этой песне:
  • Аккорды и текст

Страница создана 07.03.2012
http://primanota.ru/less-than-jake/still-life-franchise-chords.htm
Привет, Гость.
Предлагаем пройти революционный курс по гитаре.
Подарок от PrimaNota.Ru, забирай!