PrimaNota.ru - самый крупный в мире бесплатный архив песенных текстов, аккордов, табулатур и нот


Less Than Jake - Plastic Cup Politics - текст песни, таба, бас-таба, драм-таба, видео

Регистрация Запомнить меня
Войти через:  Facebook Google Twitter Vk Yandex Mail.ru

Less Than Jake - Plastic Cup Politics - текст песни, таба, бас-таба, драм-таба, видео

Печатать
Просмотров: 165
bass intro arranged for guitar
|----------------|----------------|----------------|----------------|
|----------------|----------------|----------------|----------------|
|----------------|----------------|----------------|----------------|
|6-6-6-----------|--------7-7-9-9-|6-6-6-----------|--------7-7-9-9-|
|------7-7-7-7-7-|7-7-7-7---------|------7-7-7-7-7-|7-7-7-7---------|
|----------------|----------------|----------------|----------------|

|----------------|----------------|----------------|----------------|
|----------------|----------------|----------------|----------------|
|----------------|----------------|----------------|----------------|
|6-6-6-----------|--------7-7-9-9-|6---------------|----------------|
|------7-7-7-7-7-|7-7-7-7---------|--------7-----/-|----------------|
|----------------|----------------|----------------|----------------|
riff a
guitar
|----------------|----------------|----------------|----------------|
|----------------|----------------|----------------|----------------|
|----------------|----------------|----------------|----------------|
|9-9-9-9---------|6-6-6-6-7-7-8-8-|9-9-9-9---------|6-6-6-6-7-7-8-8-|
|7-7-7-7-7-7-7-7-|4-4-4-4-5-5-6-6-|7-7-7-7-7-7-7-7-|4-4-4-4-5-5-6-6-|
|--------5-5-5-5-|----------------|--------5-5-5-5-|----------------|
horns
|----------------|----------------|---------------|-----------------|
|9-9-9-7-9-9-9-7-|--------------7-|9-7------------|-----------------|
|----------------|9-------6---9---|----9----------|---6---9---6-----|
|----------------|----------------|---------------|---------------9-|
|----------------|----------------|---------------|-----------------|
|----------------|----------------|---------------|-----------------|

riff b
|x-4---4-454-----|x-2-x-2-x-2-2-2-|x-2-x-2-x-2-2-2-|x-5-x-5-x-5-5-5-|
|x-5--------5----|x-4-x-4-x-4-4-4-|x-2-x-2-x-2-2-2-|x-5-x-5-x-5-5-5-|
|x-4-------------|x-4-x-4-x-4-4-4-|x-2-x-2-x-2-2-2-|x-6-x-6-x-6-6-6-|
|----------------|----------------|----------------|----------------|
|----------------|----------------|----------------|----------------|
|----------------|----------------|----------------|----------------|

|x-4---4-454-----|x-2-x-2-x-2-2-2-|x-2-x-2-x-2-2-2-|x-5-x-5-x-5-5-5-|
|x-5--------5----|x-4-x-4-x-4-4-4-|x-2-x-2-x-2-2-2-|x-5-x-5-x-5-5-5-|
|x-4-------------|x-4-x-4-x-4-4-4-|x-2-x-2-x-2-2-2-|x-6-x-6-x-6-6-6-|
|----------------|----------------|----------------|----------------|
|----------------|----------------|----------------|----------------|
|----------------|----------------|----------------|----------------|

|----------------|x-2-x-2-x-2-2-2-|x-5-x-5-x-5-5-5-|x-4-x-4-x-4-4-4-|
|--------5-------|x-4-x-4-x-4-4-4-|x-5-x-5-x-5-5-5-|x-5-x-5-x-5-5-5-|
|--------4-------|x-4-x-4-x-4-4-4-|x-6-x-6-x-6-6-6-|x-4-x-4-x-4-4-4-|
|--------2-------|----------------|----------------|----------------|
|--------2-------|----------------|----------------|----------------|
|0-0-0-0-0-------|----------------|----------------|----------------|
 x x x x
|x-4---4-454-----|x-2-x-2-x-2-2-2-|x-2-x-2-x-2-2-2-|x-5-x-5-x-5-5-5-|
|x-5--------5----|x-4-x-4-x-4-4-4-|x-2-x-2-x-2-2-2-|x-5-x-5-x-5-5-5-|
|x-4-------------|x-4-x-4-x-4-4-4-|x-2-x-2-x-2-2-2-|x-6-x-6-x-6-6-6-|
|----------------|----------------|----------------|----------------|
|----------------|----------------|----------------|----------------|
|----------------|----------------|----------------|----------------|

riff c
|----------------|--------7-------|--------2-------|--------5-------|
|--------9-------|--------7-------|--------2-------|--------5-------|
|--------9-------|--------8-------|--------2-------|--------6-------|
|9-9-9-9-9-------|--------9-------|--------4-------|--------7-------|
|7-7-7-7-7-------|9-9-9-9-9-------|4-4-4-4-4-------|7-7-7-7-7-------|
|----------------|7-7-7-7-7-------|2-2-2-2-2-------|5-5-5-5-5-------|
riff d
|----------------|----------------|----------------|----------------|
|----------------|----------------|----------------|----------------|
|----------------|----------------|----------------|----------------|
|----------------|9-9-9-9-9-9-9-9-|----------------|----------------|
|9-9-9-9-9-9-9-9-|7-7-7-7-7-7-7-7-|5---4-2---------|5---4-2---------|
|7-7-7-7-7-7-7-7-|----------------|--------5---4-2-|--------5---4-2-|

|----------------|----------------|----------------|----------------|
|----------------|----------------|----------------|----------------|
|----------------|----------------|----------------|----------------|
|----------------|9-9-9-9-9-9-9-9-|----------------|----------------|
|9-9-9-9-9-9-9-9-|7-7-7-7-7-7-7-7-|4---------------|5-------5-4-----|
|7-7-7-7-7-7-7-7-|----------------|----------------|------------5---|

Добавлено: 30.03.2012
Другие материалы по этой песне:

Страница создана 30.03.2012
http://primanota.ru/less-than-jake/plastic-cup-politics-chords.htm
Привет, Гость.
Предлагаем пройти революционный курс по гитаре.
Подарок от PrimaNota.Ru, забирай!