PrimaNota.ru - самый крупный в мире бесплатный архив песенных текстов, аккордов, табулатур и нот


Less Than Jake - The New Auld Lang Syne - бас-таба, видео

Регистрация Запомнить меня
Войти через:  Facebook Google Twitter Vk Yandex Mail.ru

Less Than Jake - The New Auld Lang Syne - бас-таба, видео

Печатать
Просмотров: 98
-------------------------------------------------------------------------------
                             The New Auld Lang Syne - Less Than Jake
-------------------------------------------------------------------------------
Tabbed by: Eric Mannering - theERICmeister
E-mail: ericmannering@gmail.com

Tuning:Standard

Intro - as the intro fades in, it is hard to gauge where to start playing. The intro is 
a repeating pattern so I
began tabbing the earliest I could hear the bass at the beginning of a phrase. It is a 
little confusing at
first, but listening to it and following along several times helps out.


At 0:04

G|---------------------------------------------------------------------------|
D|-5-4-------------------7---------------------------------------------------|
A|------5-3------5-5-5-5------2-2-2-2-3--------------------------------------|
E|---------------------------------------------------------------------------|

G|---------------------------------------------------------------------------|
D|-5-4--2--------------------------------------------------------------------|
A|--------5------2-2-2-2-3------5-5-5-5-5------------------------------------|
E|---------------------------------------------------------------------------|

G|---------------------------------------------------------------------------|
D|-5-4-------------------7---------------------------------------------------|
A|------5-3------5-5-5-5--------2-2-2-2-3--3-3--3-10\------------------------|
E|---------------------------------------------------------------------------|

Main Chord Progression, 0:25

G|---------------------------------------------------------------------------|
D|---------------------------------------------------------------------------|
A|-------------3--3-----------7--7-7--7-3--3--0-3-5-5-5----------------------|
E|-3--3--3-3-3-------3--3-3-3------------------------------------------------|

G|---------------------------------------------------------------------------|
D|---------------------------------------------------------------------------|
A|-------------3--3---------------------3--3----3-3-2-3----------------------|
E|-3--3--3-3-3------3--3-3-3--0--0-0--0--------------------------------------|

G|---------------------------------------------------------------------------|
D|---------------------------------------------------------------------------|
A|-------------3--3-----------7--7-7--7-3--3--0-3-5-5-5----------------------|
E|-3--3--3-3-3------3--3-3-3-------------------------------------------------|

G|---------------------------------------------------------------------------|
D|---------------------------------------------------------------------------|
A|-------------3--3---------------------3--3-2-3-3-2-3-3---------------------|
E|-3--3--3-3-3------3--3-3-3--0--0-0--0--------------------------------------|

First Verse, 0:45

G|---------------------------------------------------------------------------|
D|---------------------------------------------------------------------------|
A|-------------5--5---------------------3--3--0-3-5-5-5----------------------|
E|-3--3--3-3-3------3--3-3-3--0--0-0--0--------------------------------------|

G|---------------------------------------------------------------------------|
D|---------------------------------------------------------------------------|
A|-------------5--5---------------------3--3--0-3-3-2-3----------------------|
E|-3--3--3-3-3------3--3-3-3--0--0-0--0--------------------------------------|

G|---------------------------------------------------------------------------|
D|---------------------------------------------------------------------------|
A|-------------5--5---------------------3--3-3-3--3-2-0----------------------|
E|-3--3--3-3-3------3--3-3-3--0--0-0--0--------------------------------------|

Pre-Chorus, 1:00

G|---------------------------------------------------------------------------|
D|---------------------------------------------------------------------------|
A|----------------------------3--3-2-3-3-3--3--3-2-3-3-2-0-------------------|
E|-0-0--0-0-2-3-3--3--3-3-3-3------------------------------------------------|

G|---------------------------------------------------------------------------|
D|---------------------------------------------------------------------------|
A|---------------0--0--0-0-0-0-3-3-3-2-3-3-3-2-3-3-3-2-3-3-5-5---------------|
E|-0--0--0-0-2-3-------------------------------------------------------------|

Chorus, 1:10

G|---------------------------------------------------------------------------|
D|-------------------------------2-5----3----2--3-2--------------------------|
A|-----2-5----2----2--3-2----3-3------3----3--------3------------------------|
E|-3-3------3----3--------3--------------------------------------------------|

G|---------------------------------------------------------------------------|
D|-------------------------------2-5----3----2--3-2--------------------------|
A|-----2-5----2----2--3-2----3-3------3----3--------3------------------------|
E|-3-3------3----3--------3--------------------------------------------------|

G|---------------------------------------------------------------------------|
D|-------------------------------2-5----3----2--3-2--------------------------|
A|-----2-5----2----2--3-2----3-3------3----3--------3------------------------|
E|-3-3------3----3--------3--------------------------------------------------|

G|---------------------------------------------------------------------------|
D|---------------------------------------------------------------------------|
A|-----2-5----2----2--3-2----0--0-0--0-0-2-3--3-x-x-x-x----------------------|
E|-3-3------3----3--------3---------------------x-x-x-x----------------------|

Main Chord Progression Again, 1:29

G|---------------------------------------------------------------------------|
D|---------------------------------------------------------------------------|
A|-------------3--3-----------7--7-7--7-3--3--0-3-5-5------------------------|
E|-3--3--3-3-3------3--3-3-3-------------------------------------------------|

G|---------------------------------------------------------------------------|
D|---------------------------------------------------------------------------|
A|-------------3--3-----------7-----7-----3----------------------------------|
E|-3--3--3-3-3------3--3-3-3-------------------------------------------------|

Second Verse, 1:39

G|---------------------------------------------------------------------------|
D|---------------------------------------------------------------------------|
A|--------------3--3---------------------3--3--0-3-5-5-5---------------------|
E|-3--3-3-3-3-3------3--3-3-3--0--0-0--0-------------------------------------|

G|---------------------------------------------------------------------------|
D|---------------------------------------------------------------------------|
A|--------------3--3---------------------3--3-3--3-2-0-----------------------|
E|-3--3-3-3-3-3------3--3-3-3--0--0-0--0-------------------------------------|

Pre-Chorus, 1:48

G|---------------------------------------------------------------------------|
D|---------------------------------------------------------------------------|
A|-----------------------------3-3-3-2-3-3-3--3--3-2-3-3-2-0-----------------|
E|-0--0--0-0-2-3-3--3--3-3-3-3-----------------------------------------------|

G|---------------------------------------------------------------------------|
D|---------------------------------------------------------------------------|
A|-------------0-0--0--0-0-0-0-0-3-3-2-3-3-3-2-3-3-3-2-3-3-5-5---------------|
E|-0--0--0-0-2---------------------------------------------------------------|

Second Chorus, 1:58

G|---------------------------------------------------------------------------|
D|-------------------------------2-5----3----2--3-2--------------------------|
A|-----2-5----2----2--3-2----3-3------3----3--------3------------------------|
E|-3-3------3----3--------3--------------------------------------------------|

G|---------------------------------------------------------------------------|
D|-------------------------------2-5----3----2--3-2--------------------------|
A|-----2-5----2----2--3-2----3-3------3----3--------3------------------------|
E|-3-3------3----3--------3--------------------------------------------------|

G|---------------------------------------------------------------------------|
D|-------------------------------2-5----3----2--3-2--------------------------|
A|-----2-5----2----2--3-2----3-3------3----3--------3------------------------|
E|-3-3------3----3--------3--------------------------------------------------|

G|---------------------------------------------------------------------------|
D|---------------------------------------------------------------------------|
A|-----2-5----2----2--3-2----0--0-0--0-0-2-3--3-3--3-3-3---------------------|
E|-3-3------3----3--------3--------------------------------------------------|

Bridge, 2:18

G|---------------------------------------------------------------------------|
D|-------------5--5-5--5-4--------4---5-4------------------------------------|
A|-5--5--5-5-5-------------7-5--5---5-----5----------------------------------|
E|------------------------------------------3--3--3-3-3-3--------------------|

G|---------------------------------------------------------------------------|
D|------4---5-4--------------------------------------------------------------|
A|-5--5---5-----5-----------------3--3-3--3-3--3-3--0-3-5-5------------------|
E|----------------3--3--3-3-3-3-3--------------------------------------------|

A measure of rest, and then third chorus, 2:29

G|---------------------------------------------------------------------------|
D|-------------------2--3-3-5------------------------------------------------|
A|-----0--1-1-2--3-3---------------------------------------------------------|
E|-1-1-----------------------------------------------------------------------|

G|---------------------------------------------------------------------------|
D|-------------------------------2-5----3----2--3-2--------------------------|
A|-----2-5----2----2--3-2----3-3------3----3--------3------------------------|
E|-3-3------3----3--------3--------------------------------------------------|

Key shift to A, 2:37

G|---------------------------------------------------------------------------|
D|-----------------------------5-5-4-----------------------------------------|
A|-----4--5-5-7------4--5-5-7---------7-7-5--5-5-4--4-4-5--------------------|
E|-5-5-----------5-5---------------------------------------------------------|

G|---------------------------------------------------------------------------|
D|----------------------------------------------7------7---------------------|
A|-----4-7----4----4--5-4----2--2-2--2-2-3-5-5-----5-5-----------------------|
E|-5-5------5----5--------5--------------------------------------------------|

Third and Final Chorus, 2:46

G|---------------------------------------------------------------------------|
D|----------------------------5--5-5--4--------4---4-5-4---------------------|
A|-------------5--5---------------------5--5-5---5-------5-------------------|
E|-5--5--5-5-5------5--5-5-5-------------------------------------------------|

G|---------------------------------------------------------------------------|
D|--------------------------------------------4--5-5-6-----------------------|
A|------------5--5----------------------5-5-5--------------------------------|
E|-5-5--5-5-5------5--5-5-5--3--3-3--3---------------------------------------|

G|---------------------------------------------------------------------------|
D|-7--7--7-7-7-------------------------------4---4-5-4-----------------------|
A|-------------5--5---------------------5--5---5-------5-4-------------------|
E|------------------5--5-5-5--3--3-3--3--------------------------------------|

G|---------------------------------------------------------------------------|
D|---------------------------------------------------------------------------|
A|-------------5--5-----------2--2-2--2-2-4-5--5-5--5-5----------------------|
E|-5--5--5-5-5------5--5-5-5-------------------------------------------------|

G|---------------------------------------------------------------------------|
D|-6-7--7-6-4---------6--7---------------------------------------------------|
A|-------------5--5-5-------5------------------------------------------------|
E|---------------------------------------------------------------------------|

That's the gist of it. Roger does the occasional hammer-on and pull-off when playing so 
this isn't 100%,
but this is as close to perfect for learning the bass part itself. I will most likely 
record myself playing this
bass line and how I interpret it and post it on my profile for everyone to check out.

Thanks for checking it out,

Eric.


===============================================================================
Добавлено: 12.07.2015
Другие материалы по этой песне:
  • Аккорды и текст

Страница создана 12.07.2015
http://primanota.ru/less-than-jake/new-auld-lang-syne-chords.htm
Привет, Гость.
Предлагаем пройти революционный курс по гитаре.
Подарок от PrimaNota.Ru, забирай!