PrimaNota.ru - самый крупный в мире бесплатный архив песенных текстов, аккордов, табулатур и нот


Less Than Jake - Lucky Day - текст песни, бас-таба, видео

Регистрация Запомнить меня
Войти через:  Facebook Google Twitter Vk Yandex Mail.ru

Less Than Jake - Lucky Day - текст песни, бас-таба, видео

Печатать
Просмотров: 120
Уроки эстрадного вокала в Санкт-Петербурге
Less than jake - lucky day

G|-------------------------------------|
D|-------------------------------------|
A|------10----8---------10----8---8888-|
E|-8---------------8-------------------|

G|---------------------------------------------|
D|-----9-9h10-------7-8-10---------------------|
A|-10----------8-8-----------------10-10-7-7-8-| x5
E|-------------------------8-8-8-8-------------|

G|---------------------------------------------|
D|-----9-9h10-------7-8-10---------------------|
A|-10----------8-8-----------------10-10-10-10-| x1
E|-------------------------8-8-8-8-------------|

G|------------------------------------------------|
D|------------------------------------------------|
A|------------------------------------------------| x3
E|-7-7-777-8-8-8-888-10-10-101010-10-10-10-101010-|

G|---------------------------------------|
D|---------------------------------------|
A|---------------------------------------| 
E|-7-7-777-8-8-8-888-10--10--10--8--8--8-|

G|-------------------------------------------|
D|-------------------------------------------|
A|---------10-10-10-101010-8-8-888-8-8-8-888-| 1,3
E|-8-8-888-----------------------------------|

G|---------------------------------------------|
D|---------------------------------------------|
A|---------10-10-10-101010-88-8-88-8-88-8-88-8-| 2,4
E|-8-8-888-------------------------------------|


G|------------------------------------------------|
D|------------------------------------------------|
A|------------------------------------------------| x3
E|-7-7-777-8-8-8-888-10-10-101010-10-10-10-101010-|

G|---------------------------------------|
D|---------------------------------------|
A|---------------------------------------| 
E|-7-7-777-8-8-8-888-10--10--10--8--8--8-|

G|-------------------------------------------|
D|-------------------------------------------|
A|---------10-10-10-101010-8-8-888-8-8-8-888-| 1,3
E|-8-8-888-----------------------------------|

G|---------------------------------------------|
D|---------------------------------------------|
A|---------10-10-10-101010-88-8-88-8-88-8-88-8-| 2,4
E|-8-8-888-------------------------------------|

G|-----------------------------------------------------------------------------------------|
D|-----------------------------------------------------------------------------------------|
A|-------------------10-10-101010-10-10-10-101010-8-8-888-8-8-8-888-10-12121212-10-7-7-7-8-|
E|-8-8-888-8-8-8-888-----------------------------------------------------------------------|

G|------------------------------------------------------------------------------------|
D|------------------------------------------------------------------------------------|
A|-------------------10-10-101010-10-10-10-101010-8-8-888-8-8-8-888-8-8-888-888-8-8-8-|
E|-8-8-888-8-8-8-888------------------------------------------------------------------|

G|--------------------------------------------------------------------------|
D|--------------------------------------------------------------------------|
A|------------------10-10-10-10-10-10-10-10-8-8-8-8-8-8-8-8-8-8-8-8-8-8-8-8-| x2
E|-8-8-8-8-8-8-8-8----------------------------------------------------------|

G|-------------------------------------------|
D|-------------------------------------------|
A|---------10-10-10-101010-8-8-888-8-8-8-888-| 1,3
E|-8-8-888-----------------------------------|

G|---------------------------------------------|
D|---------------------------------------------|
A|---------10-10-10-101010-88-8-88-8-88-8-88-8-| 2,4
E|-8-8-888-------------------------------------|

G|-------------------------|
D|-------------------------|
A|-10-101010-7-8-8-888-----| x4
E|---------------------8-8-|

G|----------|
D|----------|
A|----------|
E|-8--------|
Добавлено: 12.07.2015
Другие материалы по этой песне:
  • Аккорды и текст

Страница создана 19.07.2012
http://primanota.ru/less-than-jake/lucky-day-chords.htm
Привет, Гость.
Предлагаем пройти революционный курс по гитаре.
Подарок от PrimaNota.Ru, забирай!