PrimaNota.ru - самый крупный в мире бесплатный архив песенных текстов, аккордов, табулатур и нот


Less Than Jake - Johnny Quest Thinks Were Sellouts - аккорды и текст, таба, бас-таба, драм-таба, видео

Регистрация Запомнить меня
Войти через:  Facebook Google Twitter Vk Yandex Mail.ru

Less Than Jake - Johnny Quest Thinks Were Sellouts - аккорды и текст, таба, бас-таба, драм-таба, видео

Печатать
Просмотров: 244
Уроки эстрадного вокала в Санкт-Петербурге
Авторы музыки: Roger Manganelli, Chris Demakes, Less Than Jake
Авторы текста: Vinnie Fiorello
Johnny Quest Thinks Were Sellouts
Less Than Jake
Intro PT1 (x8)
[e:-x-4-x-4-x-4-x-4-x-4-x-4-x-4-x-4-
B:-x-5-x-5-x-5-x-5-x-4-x-4-x-4-x-4-
G:-x-6-x-6-x-6-x-6-x-5-x-5-x-5-x-5-
D:-x-6-x-6-x-6-x-6-x-6-x-6-x-6-x-6-
A:-x-4-x-4-x-4-x-4-x-6-x-6-x-6-x-6-
E:-x-4-x-4-x-4-x-4-x-4-x-4-x-4-x-4-]

Intro PT2 (x2)
[e:-4-x-x-x-x-x-x-4-x-4-4-4-
B:-5-x-x-x-x-x-x-4-x-4-4-4-
G:-6-x-x-x-x-x-x-5-x-5-5-5-
D:-6-x-x-x-x-x-x-6-x-6-6-6-
A:-4-x-x-x-x-x-x-6-x-6-6-6-
E:-4-x-x-x-x-x-x-4-x-4-4-4-]

Intro PT3 (x1)
[e:-4--4--4--4--4--4-x-4-
B:-5--5--4--5--5--4-x-4-
G:-6--6--5--6--6--5-x-5-
D:-6--6--6--6--6--6-x-6-
A:-4--4--6--4--4--6-x-6-
E:-4--4--5--4--4--4-x-4-]

Intro PT2 (x3)

Verse (x7)
[e:-4-x-x-x-x-x-x-4-x-4-4-4-
B:-5-x-x-x-x-x-x-4-x-4-4-4-
G:-6-x-x-x-x-x-x-5-x-5-5-5-
D:-6-x-x-x-x-x-x-6-x-6-6-6-
A:-4-x-x-x-x-x-x-6-x-6-6-6-
E:-4-x-x-x-x-x-x-4-x-4-4-4-]

Chorus (x4)
[e:------------------------x-
B:------------------------x-
G:-3-3-------6-6-6--------x-
D:-3-3-4-4-4-6-6-6-6-6-6--x-
A:-1-1-4-4-4-4-4-4-6-6-6--x-
E:-----2-2-2-------4-4-4--x-]

Intro PT3
VERSE
CHORUS
BASS SOLO
Intro PT1
Intro PT2
CHORUS
Intro PT3
Добавлено: 22.06.2016
Другие материалы по этой песне:

Страница создана 24.03.2012
http://primanota.ru/less-than-jake/johnny-quest-thinks-were-sellouts-chords.htm
Привет, Гость.
Предлагаем пройти революционный курс по гитаре.
Подарок от PrimaNota.Ru, забирай!