PrimaNota.ru - самый крупный в мире бесплатный архив песенных текстов, аккордов, табулатур и нот


Less Than Jake - Hell Looks A Lot Like La - текст песни, таба, видео

Регистрация Запомнить меня
Войти через:  Facebook Google Twitter Vk Yandex Mail.ru

Less Than Jake - Hell Looks A Lot Like La - текст песни, таба, видео

Печатать
Просмотров: 99
Artist: Less Than Jake
Song: Hell Looks A Lot Like L.A.


Tuning: Standart
Let Ring: ~


Intro

e------------------------------------------|  2x
B------------------------------------------|
G-------------------------------9-9-9-9----|
D---9-9-9-9-9-9-9-9-9--7-7-7-7--9-9-9-9----|
A---9-9-9-9-9-9-9-9-9--7-7-7-7--7-7-7-7----|
E---7-7-7-7-7-7-7-7-7--5-5-5-5-------------|

Verse 1

e------------------------------------------|  2x
B------------------------------------------|
G-------------------------------9-9-9-9----|
D---9-9-9-9-9-9-9-9-9--7-7-7-7--9-9-9-9----|
A---9-9-9-9-9-9-9-9-9--7-7-7-7--7-7-7-7----|
E---7-7-7-7-7-7-7-7-7--5-5-5-5-------------|


e------------------------------------|  2x
B------------------------------------|
G---11-11-11--8--9-9-9---------------|
D---11-11-11--8--9-9-9--9-9-9-9-9----|
A---9--9--9---6--7-7-7--9-9-9-9-9----|
E-----------------------7-7-7-7-7----|

Pre - Chorus

e----------------|
B----------------|
G----9~--11~-----|
D----9~--11~-----|
A----7~--9~------|
E----------------|


„ 10 minuets and 2 miles, a mile too many today.....“

e-------------------------------------|  3x
B-------------------------------------|
G-------------------------------------|
D---9-9---9-9-9---9-6-6-6--9-9-9-9----|
A---9-9---9-9-9---9-6-6-6--9-9-9-9----|
E---7-7---7-7-7---7-4-4-4--7-7-7-7----|
          ^ ^ ^
          fast played

Chorus

„You know that Hell Looks A Lot Like LA....“
e-------------------------------------------|
B-------------------------------------------|
G------------------------------9-9-9-9------|
D----11-11-11-11-11--7-7-7-7---9-9-9-9------|
A----11-11-11-11-11--7-7-7-7---7-7-7-7------|
E----9--9--9--9--9---5-5-5-5----------------|


e------------------------------------------|  2x
B------------------------------------------|
G-------------------------------9-9-9-9----|
D---9-9-9-9-9-9-9-9-9--7-7-7-7--9-9-9-9----|
A---9-9-9-9-9-9-9-9-9--7-7-7-7--7-7-7-7----|
E---7-7-7-7-7-7-7-7-7--5-5-5-5-------------|

Verse 2

e-------| at the beginning short chord
B-------|
G----9--|
D----9--|
A----7--|
E-------|


e------------------------------------------|  2x
B------------------------------------------|
G-------------------------------9-9-9-9----|
D---9-9-9-9-9-9-9-9-9--7-7-7-7--9-9-9-9----|
A---9-9-9-9-9-9-9-9-9--7-7-7-7--7-7-7-7----|
E---7-7-7-7-7-7-7-7-7--5-5-5-5-------------|


e------------------------------------|  2x
B------------------------------------|
G---11-11-11--8--9-9-9---------------|
D---11-11-11--8--9-9-9--9-9-9-9-9----|
A---9--9--9---6--7-7-7--9-9-9-9-9----|
E-----------------------7-7-7-7-7----|

Pre - Chorus

e---------------|
B---------------|
G----9~--11~----|
D----9~--11~----|
A----7~--9~-----|
E---------------|


„ 10 minuets and 2 miles, a mile too many today.....“

e--------------------------------------|  3x
B--------------------------------------|
G--------------------------------------|
D---9-9---9-9-9---9-6-6-6--9-9-9-9-----|
A---9-9---9-9-9---9-6-6-6--9-9-9-9-----|
E---7-7---7-7-7---7-4-4-4--7-7-7-7-----|
          ^ ^ ^
          fast played


Chorus

„You know that Hell Looks A Lot Like LA....“
e-------------------------------------------| 2x
B-------------------------------------------|
G------------------------------9-9-9-9------|
D----11-11-11-11-11--7-7-7-7---9-9-9-9------|
A----11-11-11-11-11--7-7-7-7---7-7-7-7------|
E----9--9--9--9--9---5-5-5-5----------------|


e------------------------------------------|  2x
B------------------------------------------|
G-------------------------------9-9-9-9----|
D---9-9-9-9-9-9-9-9-9--7-7-7-7--9-9-9-9----|
A---9-9-9-9-9-9-9-9-9--7-7-7-7--7-7-7-7----|
E---7-7-7-7-7-7-7-7-7--5-5-5-5-------------|


Outro

e------------------------------------------|  repet until ending with some breaks
B------------------------------------------|
G-------------------------------9-9-9-9----|
D---9-9-9-9-9-9-9-9-9--7-7-7-7--9-9-9-9----|
A---9-9-9-9-9-9-9-9-9--7-7-7-7--7-7-7-7----|
E---7-7-7-7-7-7-7-7-7--5-5-5-5-------------|

Ending

e---------------------------------------------|
B---------------------------------------------|
G------------------------------9-9-9-9--------|
D----11-11-11-11-11--7-7-7-7---9-9-9-9--7~----|
A----11-11-11-11-11--7-7-7-7---7-7-7-7--7~----|
E----9--9--9--9--9---5-5-5-5------------5~----|

Добавлено: 25.02.2012
Другие материалы по этой песне:
  • Аккорды и текст

Страница создана 25.02.2012
http://primanota.ru/less-than-jake/hell-looks-a-lot-like-la-chords.htm
Привет, Гость.
Предлагаем пройти революционный курс по гитаре.
Подарок от PrimaNota.Ru, забирай!