PrimaNota.ru - самый крупный в мире бесплатный архив песенных текстов, аккордов, табулатур и нот


Less Than Jake - Handshake Meets Pokerface - текст песни, таба, бас-таба, видео

Регистрация Запомнить меня
Войти через:  Facebook Google Twitter Vk Yandex Mail.ru

Less Than Jake - Handshake Meets Pokerface - текст песни, таба, бас-таба, видео

Печатать
Просмотров: 153
Уроки эстрадного вокала в Санкт-Петербурге
Handshake Meets Pokerface:

Great song off of Less Than Jake's new album, "GNV FLA".
Email me if you figure out the parts I was either unsure of or could not figure
out at marmalademan9000@gmail.com
or just with suggestions on how to make the tab be less inaccurate.


Intro Pt.1
e|-----------------|(X2)
B|-----------------|
G|--9-9\-----------|
D|--9-9\---4~-7~---|
A|--7-7\---4~-7~---|
E|---------2~-5~---|

Intro Pt.2
e|-----------------|(X1)
B|-----------------|
G|--999\-----------|
D|--999\---4~-7~---|
A|--777\---4~-7~---|
E|---------2~-5~---|

Intro Pt.3/Chorus(Ska Style)
e|--------2-----5-------|(X2)
B|--9-----2-----5-------|
G|--9-----3-----6-------|
D|--9-----4-----7-------|
A|--7(X8)-4(X4)-7(X4)---|
E|----------------------|

Verse
e|------------------------------------------|(X2)
B|---------------11-------------------------|
G|---------------11-------------------------|
D|--7-----11-----11-----11-----44-6-77-999--|
A|--7-----11-----11-----11-----44-6-77-999--|
E|--5(X?)-9-(X?)-9-(X?)-9-(X?)-22-4-55-777--|

Verse Ending (not sure how to play)

Chorus/interlude
e|--------2-----5-------|(X6)   (Last time play last chord once)
B|--9-----2-----5-------|
G|--9-----3-----6-------|
D|--9-----4-----7-------|
A|--7(X8)-4(X4)-7(X4)---|
E|----------------------|

Verse
e|------------------------------------------|(X2)
B|---------------11-------------------------|
G|---------------11-------------------------|
D|--7-----11-----11-----11-----44-6-77-999--|
A|--7-----11-----11-----11-----44-6-77-999--|
E|--5(X?)-9-(X?)-9-(X?)-9-(X?)-22-4-55-777--|

Verse Ending (not sure how to play)

Chorus
e|--------2-----5-------|(X4)   (Last time don't play last chord)
B|--9-----2-----5-------|
G|--9-----3-----6-------|
D|--9-----4-----7-------|
A|--7(X8)-4(X4)-7(X4)---|
E|----------------------|

Interlude 2 (Not sure about this)
e|-------|-------------------------------------|
B|-------|-------------------------------------|
G|-------|--9----------------------------------|
D|-7-----|--7----9-----7-----6-----7-----9-----|
A|-7-----|--7(X?)9-----7-----6-----7-----9-----|
E|-5(X?)-|-------7(X?)-5(X?)-4(X?)-5(X?)-7(X?)-|

Verse(For palm-muted parts, play some chords during them w/out PM. Listen to the song to
out which)
e|------------------------------------------|(X2)
B|---------------11-------------------------|
G|---------------11-------------------------|
D|--7-----11-----11-----11-----44-6-77-999--|
A|--7-----11-----11-----11-----44-6-77-999--|
E|--5(X?)-9-(X?)-9-(X?)-9-(X?)-22-4-55-777--|
    .     .      .      .

Verse Ending (not sure how to play)

Chorus
e|--------2-----5-------|(X4)   (Power Chord Version of all of these ska
B|--9-----2-----5-------|        chords over this)
G|--9-----3-----6-------|
D|--9-----4-----7-------|
A|--7(X8)-4(X4)-7(X4)---|
E|----------------------|

End on

e|--------|
B|--------|
G|--9-9\--|
D|--9-9\--|
A|--7-7\--|
E|--------|

Tabbed by: Marmalademan
October 10, 2008
Добавлено: 12.04.2012
Другие материалы по этой песне:
  • Аккорды и текст

Страница создана 12.04.2012
http://primanota.ru/less-than-jake/handshake-meets-pokerface-chords.htm
Привет, Гость.
Предлагаем пройти революционный курс по гитаре.
Подарок от PrimaNota.Ru, забирай!