PrimaNota.ru - самый крупный в мире бесплатный архив песенных текстов, аккордов, табулатур и нот


Les wanyika - Sina Makosa - таба, видео

Регистрация Запомнить меня
Войти через:  Facebook Google Twitter Vk Yandex Mail.ru

Les wanyika - Sina Makosa - таба, видео

Печатать
Просмотров: 63
-------------------------------------------------------------------------------
                             SINA MAKOSA - LES WANYIKA
-------------------------------------------------------------------------------
Tabbed by: Wooden strings
E-mail: itsmembau@gmail.com

Tuning: Standard


e|---5-------2---------|---5-------4---------|
B|-------5-------3-----|-------5-------5-----|
G|-----------------4/6-|-----------------4/6-|
D|-7-------4-----------|-7-------6-----------|
A|-----7-------5-------|-----7-------7-------|
E|---------------------|---------------------|



e|---5-------2---------|---5-7/9---4---------|
B|-------5-------3-----|---------------5-----|
G|-----------------4/6-|-----------------4/6-|
D|-7-------4-----------|-7-------6-----------|
A|-----7-------5-------|-------------7-------|
E|---------------------|---------------------|


interlude riff(basic)

e|---12-9----------10--12-14\12--12-9---------10p9----9----|
B|--------10--------------------------10---9-------12---10-|
G|-9---------11--------------------------9-----------------|
D|--------------12-----------------------------------------|
A|---------------------------------------------------------|
E|---------------------------------------------------------|

interlude riff variation (notice the double 11 on G and double 10 on B. these are fast 

up and down strokes. you can omit them if you like) 

e|---12-9-------------10--12-14\12--12-9------------10p9----9----|
B|--------10-----------------------------10-10---9-------12---10-|
G|-9---------11-11-----------------------------9-----------------|
D|-----------------12--------------------------------------------|
A|---------------------------------------------------------------|
E|---------------------------------------------------------------|


interlude riff 2nd variation (basic)
e|---12-9-----------------10--14\12--12-9---------10p9----9----|
B|---------10-----------10----------------10---9-------12---10-|
G|-9----------12-11--------------------------9-----------------|
D|------------------12-----------------------------------------|
A|-------------------------------------------------------------|
E|-------------------------------------------------------------|


interlude riff 2nd variation (variation. notice the double 10 on B. this is a fast up 

and down stroke)
e|---12-9-----------------10--14\12--12-9-----------10p9-----9----|
B|---------10-----------10----------------10-10---9-------12---10-|
G|-9----------12-11-----------------------------9-----------------|
D|------------------12--------------------------------------------|
A|----------------------------------------------------------------|
E|----------------------------------------------------------------|


have fun learning this lead tab. review, comment and share

************************************

| /   slide up
| \   slide down
| h   hammer-on
| p   pull-off
| ~   vibrato
| +   harmonic
| x   Mute note
| b   Bend
| pb  Pre-bend
| br  Bend release
| pbr Pre-bend release
| brb Bend release bend

************************************
Добавлено: 19.05.2016
Другие материалы по этой песне:
  • Аккорды и текст

Страница создана 19.05.2016
http://primanota.ru/les-wanyika/sina-makosa-chords.htm
Привет, Гость.
Предлагаем пройти революционный курс по гитаре.
Подарок от PrimaNota.Ru, забирай!