PrimaNota.ru - самый крупный в мире бесплатный архив песенных текстов, аккордов, табулатур и нот


Les Vulgaires Machins - Etre Un Comme - таба, видео

Регистрация Запомнить меня
Войти через:  Facebook Google Twitter Vk Yandex Mail.ru

Les Vulgaires Machins - Etre Un Comme - таба, видео

Печатать
Просмотров: 93
*Voici une version améliorée de ma tab pour Être Un Comme. Plusieurs défauts mineurs dûs 
la facon dont ma guitare était accordée ont été réglés. Merci de votre compréhension*

(Intro)

Guitare 1

|---------------------------------|
|---------------------------------|
|----4-4-4-4----------------------|
|----4-4-4-4----------------------| Autant de fois que nécessaire
|----4-4-4-4----------------------|
|---------------------------------|

Guitare 2

|-------------------------------------|
|------7-------7------7------7----7---|
|----7---7-7-7--7-7-7 -7-7-7---7-7----|
|---9-9---9-9-9--9-9-9--9-9-9---9-----|
|-------------------------------------|
|-------------------------------------|

Guitare 3(assez discrète il faut porter attention pour bien l'entendre)

|------------------------------|
|------------------------------|
|----4(6x)2(6x)0(6x)2(6x)------|
|----4----2----0----2----------| Autant de fois que nécessaire
|----2----0----0----0----------|
|------------------------------|


Couplet

(Seulement la basse pendant un certain moment)

Guitare 1

|-------------------------------------------------------|
|-------------------------------------------------------|
|----6(7x a peu pres)7(meme chose)----------------------|
|----6---------------7----------------------------------|
|----4---------------5----------------------------------|
|-------------------------------------------------------|

Guitare 2

|--------------------------------------------------|
|--------------------------------------------------|
|----8(6x a peu pres)7(pareil)8(pareil)12(pareil)--|
|----X---------------X--------X--------X-----------|
|----6---------------5--------6--------10----------|
|--------------------------------------------------|

Ca fait ca 2x dans le couplet 1

(Refrain)On s'en va nul part si......

Guitare 1

|-------------------------------------------------|
|-------------------------------------------------|
|-------------------------------------------------|
|----5(6x a preu pres)6(pareil)5(pareil)4(pareil)-| 2x
|----5----------------6--------5--------4---------|
|----3----------------4--------3--------1---------|
*OU*
|-------------------------------------------------|
|-------------------------------------------------|
|-------------------------------------------------|
|----5(6x a preu pres)6(pareil)7(pareil)5(pareil)-| 2x
|----5----------------6--------7--------5---------|
|----3----------------4--------5--------3---------|


|-------------|
|-------------|
|-------------|
|----5--------| Autant de fois que nécessaire(pendant la séquence de guit2)
|----5--------|
|----3--------|

Guitare 2

|-------------------------------------|
|------7-------8------9------7--------|
|----7---7-7-7--7-7-7 -7-7-7---7-7----|
|---9-9---9-9-9--9-9-9--9-9-9---9-----| 2x
|-------------------------------------|
|-------------------------------------|

Post-Couplet

Guitare 2

|--------------------------------------------------|
|--------------------------------------------------|
|----5(6x a peu pres)7(pareil)8(pareil)12(pareil)--| 2x
|----X---------------X--------X--------X-----------|
|----3---------------5--------6--------10----------|
|--------------------------------------------------|

Guitare 3(assez discrète il faut porter attention pour bien l'entendre)

|------------------------------|
|------------------------------|
|----4(6x)2(6x)0(6x)2(6x)------|
|----4----2----0----2----------|
|----2----0----0----0----------|
|------------------------------|

(Outro)ahahah ahahah ahahah ahahhhhhh

Guitare 1

|-------------------------------------------------|
|-------------------------------------------------|
|-------------------------------------------------|
|----5(6x a preu pres)6(pareil)7(pareil)5(pareil)-| 2x
|----5----------------6--------7--------5---------|
|----3----------------4--------5--------3---------|

Guitare 2(discrete mais audible en tendant l'oreille)

|----------------------------------------------|
|----777-77-666-66-777-77-888-88---------------|
|----777-77-666-66-777-77-888-88---------------|
|----------------------------------------------|
|----------------------------------------------|
|----------------------------------------------|

La chanson se joue dans cet ordre :

Intro
Couplet(2x)
Refrain
Post-Couplet
Couplet(2x)Un accord D est joué par la guitare 3
Refrain
Outro
Добавлено: 08.04.2012
Другие материалы по этой песне:
  • Аккорды и текст

Страница создана 08.04.2012
http://primanota.ru/les-vulgaires-machins/etre-un-comme-chords.htm
Привет, Гость.
Предлагаем пройти революционный курс по гитаре.
Подарок от PrimaNota.Ru, забирай!