PrimaNota.ru - самый крупный в мире бесплатный архив песенных текстов, аккордов, табулатур и нот


Les Vulgaires Machins - Compter Les Corps - таба, видео

Регистрация Запомнить меня
Войти через:  Facebook Google Twitter Vk Yandex Mail.ru

Les Vulgaires Machins - Compter Les Corps - таба, видео

Печатать
Просмотров: 75
Compter Les Corps

               As recorded by Les Vulgaires Machins	
                (From the 2006 Album COMPTER LES CORPS)


par: boardrider_666@hotmail.com




Tuning : DCGFAD




    Gtr I & II
||---------------|
||---------------|
||---------------|   Intro x6
||-----bass------|
||---------------|
||---------------|



    Gtr I
||--------------------------------------------------------------------|
||--------------------------------------------------------------------|
||--------------------------------------------------------------------|                  
||--------------------------------------------------------------------|
||--------------------------------------------------------------------|
||--------------------------------------------------------------------|
|
|   Gtr II
||--------------------------------------------------------------------|
||--------------------------------------------------------------------|
||---------------------10-------------9-------------------------------|
||----7----------------10-----10------9-------------------------------|
||----7----------------8------10------7-------------------------------|
||----5-----------------------8---------------------------------------|



    Gtr I
||--------------------------------------------------------------------|
||--------------------------------------------------------------------|
||--------------------------------------------------------------------|
||--------------------------------------------------------------------|
||--------------------------------------------------------------------|
||--------------------------------------------------------------------|
|
|   Gtr II
||--------------------------------|-----------------------------------|
||--------------------------------|-----------------------------------|
||----9---------------------------|----10--------------9--------------|
||----9-------5-------7-----------|----10------10------9--------------|
||----7-------5-------7-----------|----8-------10------7--------------|
||------------3-------5-----------|------------8----------------------|


    Gtr I
||--------------------------------------------------------------------|
||--------------------------------------------------------------------|
||--------------------------------------------------------------------|
||-----------------------7-------7---------------7-------7------------|
||-----------------------7-------7---------------7-------7------------|
||-------------------5-5-5---5-5-5-----------5-5-5---5-5-5------------|
|
|   Gtr II
||--------------------------------------------------------------------|
||--------------------------------------------------------------------|
||---9----------------------------------------------------------------|
||---9-------5-------7------------------------------------------------|
||---7-------5-------7------------------------------------------------|
||-----------3-------5------------------------------------------------|





    Gtr I
||--------------------------------------------------------------------|
||--------------------------------------------------------------------|
||--------------------------------------------------------------------|
||-----------------------7-------7---------------7-------7------------|
||-----------------------7-------7---------------7-------7------------|
||-------------------5-5-5---5-5-5-----------5-5-5---5-5-5------------|
|
|   Gtr II
||--------------------------------------------------------------------|
||---------------------------------------------------------------10---|
||--------------------------------------------------------------------|
||--------------------------------------------------------------------|
||--------------------------------------------------------------------|
||--------------------------------------------------------------------|





    Gtr I
||--------------------------------------------------------------------|
||--------------------------------------------------------------------|
||-----------------------------------------------10-------------------|
||-----------------------7-------7---------------10------10-----------|
||-----------------------7-------7-----------8-8-8-------10-----------|
||-------------------5-5-5---5-5-5-------------------8-8-8------------|
|
|   Gtr II
||-------------------8-8---------------------8-8-----8-8--------------|
||---------------------------------------10-------10------10----------|
||--------------------------------------------------------------------|
||--------------------------------------------------------------------|
||--------------------------------------------------------------------|
||--------------------------------------------------------------------|


    Gtr I
||--------------------------------------------------------------------|
||--------------------------------------------------------------------|
||---------------9-------9-----9---------------10--------12-----------|
||---------------9-------9-----9---------------10--------12-----------|
||-----------7-7-7---7-7-7---7-7-----------8-8-8---10-10-10-----------|
||--------------------------------------------------------------------|
|
|   Gtr II
||--------8-7------------------------------7-7-----7-7----------------|
||---------------------------------------9-------9-------9------------|
||--------------------------------------------------------------------|
||--------------------------------------------------------------------|
||--------------------------------------------------------------------|
||--------------------------------------------------------------------|






Gtr I
||--------------------------------------------------------------------|
||--------------------------------------------------------------------|
||-----------------------------------------------10-------------------|
||-----------------------7-------7---------------10------10-----------|
||-----------------------7-------7-----------8-8-8-------10-----------|
||-------------------5-5-5---5-5-5-------------------8-8-8------------|
|
|   Gtr II
||-------------------8-8---------------------8-8-----8-8--------------|
||---------------------------------------10-------10------10----------|
||--------------------------------------------------------------------|
||--------------------------------------------------------------------|
||--------------------------------------------------------------------|
||--------------------------------------------------------------------|





    Gtr I
||--------------------------------------------------------------------|
||--------------------------------------------------------------------|
||---------------9-------9-----9---------------10--------12-----------|
||---------------9-------9-----9---------------10--------12-----------|
||-----------7-7-7---7-7-7---7-7-----------8-8-8---10-10-10-----------|
||--------------------------------------------------------------------|
|
|   Gtr II
||--------8-7------------------------------7-7-----7-7----------------|
||---------------------------------------9-------9-------9------------|
||--------------------------------------------------------------------|
||--------------------------------------------------------------------|
||--------------------------------------------------------------------|
||--------------------------------------------------------------------|

0:41
      

    Gtr I
||--------------------------------------------------------------------|
||--------------------------------------------------------------------|
||--------------------10-10-10-10-------------------------------------|
||----7-7-7-7-7-7-7-7-10-10-10-10-10-10-10-10-------------------------|
||----7-7-7-7-7-7-7-7-8--8--8--8--10-10-10-10-------------------------|
||----5-5-5-5-5-5-5-5-------------8--8--8--8--------------------------|
|
|   Gtr II
||----8-8-------------8--8--------8--8--------------------------------|
||-----------------10----------10---------10--------------------------|
||--------------------------------------------------------------------|
||--------------------------------------------------------------------|
||--------------------------------------------------------------------|
||--------------------------------------------------------------------|




    Gtr I
||--------------------------------------------------------------------|
||--------------------------------------------------------------------|
||--------------------------------------------------------------------|
||----2-2-2-2-2-2-2-2-3-3-3-3-5-5-5-5---------------------------------|
||----2-2-2-2-2-2-2-2-3-3-3-3-5-5-5-5---------------------------------|
||----0-0-0-0-0-0-0-0-1-1-1-1-3-3-3-3---------------------------------|
|
|   Gtr II
||----8-7-------------7-7-----7-7-------------------------------------|
||------------------9-------9-------9---------------------------------|
||--------------------------------------------------------------------|
||--------------------------------------------------------------------|
||--------------------------------------------------------------------|
||--------------------------------------------------------------------|


   Gtr I
||--------------------------------------------------------------------|
||--------------------------------------------------------------------|
||--------------------10-10-10-10-------------------------------------|
||----7-7-7-7-7-7-7-7-10-10-10-10-10-10-10-10-------------------------|
||----7-7-7-7-7-7-7-7-8--8--8--8--10-10-10-10-------------------------|
||----5-5-5-5-5-5-5-5-------------8--8--8--8--------------------------|
|
|   Gtr II
||----8-8-------------8--8--------8--8--------------------------------|
||-----------------10----------10---------10--------------------------|
||--------------------------------------------------------------------|
||--------------------------------------------------------------------|
||--------------------------------------------------------------------|
||--------------------------------------------------------------------|




    Gtr I
||--------------------------------------------------------------------|
||--------------------------------------------------------------------|
||--------------------------------------------------------------------|
||----2-2-2-2-2-2-2-2-3-3-3-3-5-5-5-5---------------------------------|
||----2-2-2-2-2-2-2-2-3-3-3-3-5-5-5-5---------------------------------|
||----0-0-0-0-0-0-0-0-1-1-1-1-3-3-3-3---------------------------------|
|
|   Gtr II
||----8-7-------------7-7-----7-7-------------------------------------|
||------------------9-------9-------9---------------------------------|
||--------------------------------------------------------------------|
||--------------------------------------------------------------------|
||--------------------------------------------------------------------|
||--------------------------------------------------------------------|


0:53

    Gtr 1
||----8-8-8-8-8-8-8-8-8-8-8-8-8-8-8-8---------------------------------|
||----x-x-x-x-x-x-x-x-x-x-x-x-x-x-x-x---------------------------------|
||----x-x-x-x-x-x-x-x-x-x-x-x-x-x-x-x---------------------------------|
||----7-7-7-7-7-7-7-7-7-7-7-7-7-7-7-7---------------------------------|
||----7-7-7-7-7-7-7-7-7-7-7-7-7-7-7-7---------------------------------|
||----5-5-5-5-5-5-5-5-5-5-5-5-5-5-5-5---------------------------------|
|
|   Gtr 2
||----8---------------------------------------------------------------|
||--------------------------------------------------------------------|
||--------------------------------------------------------------------|
||--------------------------------------------------------------------|
||--------------------------------------------------------------------|
||--------------------------------------------------------------------|



0:56

    Gtr I
||----8---------------------------------------------------------------|
||----x---------------------------------------------------------------|
||----x---------------------------------------------------------------|
||----7---let ring----------------------------------------------------|
||----7---------------------------------------------------------------|
||----5---------------------------------------------------------------|
|
|   Gtr II
||------8------8------8------------8------8------8--------------------|
||--------10-----10------------------10-----10------------------------|
||-----------9------9-------------------9------9----------------------|
||--------------------------------------------------------------------|
||----0---------------------------------------------------------------|
||--------------------------------------------------------------------|







    Gtr I
||--------------------------------------------------------------------|
||--------------------------------------------------------------------|
||--------------------------------------------------------------------|
||--------------------------------------------------------------------|
||--------------------------------------------------------------------|
||--------------------------------------------------------------------|
|
|   Gtr II
||------8------8------8------------8------8------8-------------|
||--------10-----10------------------10-----10-----------------|
||-----------9------9-------------------9------9---------------|
||-------------------------------------------------------------|  x5
||-------------------------------------------------------------|
||-------------------------------------------------------------|




    Gtr I
||--------------------------------------------------------------------|
||--------------------------------------------------------------------|
||--------------------------------------------------------------------|
||--------------------------------------------------------------------|
||--------------------------------------------------------------------|
||--------------------------------------------------------------------|
|
|   Gtr II
||--------------------------------------------------------------------|
||--------------------------------------------------------------------|
||----------10-------10-----------------10-------10-------------------|
||-------12-------12----12-----------12-------12----12----------------|
||----12-------12-----------------13-------13-------------------------|
||--------------------------------------------------------------------|




    Gtr I
||--------------------------------------------------------------------|
||--------------------------------------------------------------------|
||--------------------------------------------------------------------|
||--------------------------------------------------------------------|
||--------------------------------------------------------------------|
||--------------------------------------------------------------------|
|
|   Gtr II
||------8------8------8------------8------8------8--------------------|
||--------10-----10------------------10-----10------------------------|
||-----------9------9-------------------9------9----------------------|
||--------------------------------------------------------------------|
||----0---------------------------------------------------------------|
||--------------------------------------------------------------------|





    Gtr I
||--------------------------------------------------------------------|
||--------------------------------------------------------------------|
||--------------------------------------------------------------------|
||--------------------------------------------------------------------|
||--------------------------------------------------------------------|
||--------------------------------------------------------------------|
|
|   Gtr II
||------8------8------8------------8------8------8-------------|
||--------10-----10------------------10-----10-----------------|
||-----------9------9-------------------9------9---------------|
||-------------------------------------------------------------|  x3
||-------------------------------------------------------------|
||-------------------------------------------------------------|




    Gtr I
||--------------------------------------------------------------------|
||--------------------------------------------------------------------|
||--------------------------------------------------------------------|
||--------------------------------------------------------------------|
||--------------------------------------------------------------------|
||--------------------------------------------------------------------|
|
|   Gtr II
||--------------------------------------------------------------------|
||--------------------------------------------------------------------|
||----------10-------10-----------------10-------10-------------------|
||-------12-------12----12-----------12-------12----12----------------|
||----12-------12-----------------13-------13-------------------------|
||--------------------------------------------------------------------|



1:18

    Gtr I
||--------------------------------------------------------------------|
||--------------------------------------------------------------------|
||--------------------------------------------------------------------|
||----7-7-7-7-7-7-7-7-7-7-7-7-7-7-7-7---------------------------------|
||----7-7-7-7-7-7-7-7-7-7-7-7-7-7-7-7---------------------------------|
||----5-5-5-5-5-5-5-5-5-5-5-5-5-5-5-5---------------------------------|
|
|   Gtr II
||--------------------------------------------------------------------|
||--------------------------------------------------------------------|
||--------------------------------------------------------------------|
||----7-7-7-7-7-7-7-7-7-7-7-7-7-7-7-7---------------------------------|
||----7-7-7-7-7-7-7-7-7-7-7-7-7-7-7-7---------------------------------|
||----5-5-5-5-5-5-5-5-5-5-5-5-5-5-5-5---------------------------------|

    Gtr I
||--------------------------------------------------------------------|
||--------------------------------------------------------------------|
||--------------------------------------------------------------------|
||--------------------------------------------------------------------|
||--------------------------------------------------------------------|
||--------------------------------------------------------------------|
|
|   Gtr II
||------8------8------8------------8------8------8--------------------|
||--------10-----10------------------10-----10------------------------|
||-----------9------9-------------------9------9----------------------|
||--------------------------------------------------------------------|
||----0---------------------------------------------------------------|
||--------------------------------------------------------------------|




    Gtr I
||--------------------------------------------------------------------|
||--------------------------------------------------------------------|
||--------------------------------------------------------------------|
||--------------------------------------------------------------------|
||--------------------------------------------------------------------|
||--------------------------------------------------------------------|
|
|   Gtr II
||------8------8------8------------8------8------8--------------------|
||--------10-----10------------------10-----10------------------------|
||-----------9------9-------------------9------9----------------------|
||--------------------------------------------------------------------|
||--------------------------------------------------------------------|
||--------------------------------------------------------------------|




    Gtr I
||--------------------------------------------------------------------|
||--------------------------------------------------------------------|
||--------------------------------------------------------------------|
||--------------------------------------------------------------------|
||--------------------------------------------------------------------|
||--------------------------------------------------------------------|
|
|   Gtr II
||--------------------------------------------------------------------|
||--------------------------------------------------------------------|
||----------10-------10-----------------10-------10-------------------|
||-------12-------12----12-----------12-------12----12----------------|
||----12-------12-----------------13-------13-------------------------|
||--------------------------------------------------------------------|




1:28
Pré-Chorus

    Gtr I
||--------------------------------------------------------------------|
||--------------------------------------------------------------------|
||---------------------------------5-5-5-5-5-5-5-5-1010101010101010---|
||-7-7-7-7-7-7-7-7-5-5-5-5-5-5-5-5-5-5-5-5-5-5-5-5-1010101010101010---|
||-7-7-7-7-7-7-7-7-5-5-5-5-5-5-5-5-3-3-3-3-3-3-3-3-8-8-8-8-8-8-8-8----|
||-5-5-5-5-5-5-5-5-3-3-3-3-3-3-3-3------------------------------------|
|
|   Gtr II
||--------------------------------------------------------------------|
||--------------------------------------------------------------------|
||---------------------------------5-5-5-5-5-5-5-5-1010101010101010---|
||-7-7-7-7-7-7-7-7-5-5-5-5-5-5-5-5-5-5-5-5-5-5-5-5-1010101010101010---|
||-7-7-7-7-7-7-7-7-5-5-5-5-5-5-5-5-3-3-3-3-3-3-3-3-8-8-8-8-8-8-8-8----|
||-5-5-5-5-5-5-5-5-3-3-3-3-3-3-3-3------------------------------------|



    Gtr I
||--------------------------------------------------------------------|
||--------------------------------------------------------------------|
||--------------------------------------------------------------------|
||----12-12-12-12-12-12-12-12-12-12-12-12-12-12-12-12-----------------|
||----10-10-10-10-10-10-10-10-10-10-10-10-10-10-10-10-----------------|
||--------------------------------------------------------------------|
|
|   Gtr II
||--------------------------------------------------------------------|
||--------------------------------------------------------------------|
||--------------------------------------------------------------------|
||----12-12-12-12-12-12-12-12-12-12-12-12-12-12-12-12-----------------|
||----10-10-10-10-10-10-10-10-10-10-10-10-10-10-10-10-----------------|
||--------------------------------------------------------------------|



1:37
Refrain
                                                               ______
    Gtr I                                                           |
||----------------------------------------------------------------| | 
||----------------------------------------------------------------| |  
||----------------------------------------------------------------| |  
||--------------------10-10-10-10---------------------------------| |  
||----7-7-7-7-7-7-7-7-8--8--8--8--10-10-10-10---------------------| |  
||----5-5-5-5-5-5-5-5-------------8--8--8--8----------------------| |  
|                                                                   |
|   Gtr II                                                          |
||----------------------------------------------------------------| |  
||----------------------------------------------------------------| |  
||----------------------------------------------------------------| |  
||--------------------10-10-10-10---------------------------------| |  
||----7-7-7-7-7-7-7-7-8--8--8--8--10-10-10-10---------------------| |  
||----5-5-5-5-5-5-5-5-------------8--8--8--8----------------------| |  
											  |
											  |x2
											  |
    Gtr I										  |
||----------------------------------------------------------------| |  
||----------------------------------------------------------------| |  
||----------------------------------------------------------------| |  
||----12-12-12-12-12-12-12-12--9-9-9-9----------------------------| |  
||----10-10-10-10-10-10-10-10--7-7-7-7-5-5-5-5--------------------| |  
||-------------------------------------3-3-3-3--------------------| |  
|											  |
|   Gtr II										  |
||----------------------------------------------------------------| |
||----------------------------------------------------------------| |  
||----------------------------------------------------------------| |  
||----12-12-12-12-12-12-12-12--9-9-9-9----------------------------| |  
||----10-10-10-10-10-10-10-10--7-7-7-7-5-5-5-5--------------------| |  
||-------------------------------------3-3-3-3--------------------| |  
										   _____|



    Gtr I
||--------------------------------------------------------------------|
||--------------------------------------------------------------------|
||--------------------------------------------------------------------|
||--------------------------------------------------------------------|
||--------------------------------------------------------------------|
||--------------------------------------------------------------------|
|
|   Gtr II
||------8------8------8------------8------8------8--------------------|
||--------10-----10------------------10-----10------------------------|
||-----------9------9-------------------9------9----------------------|
||--------------------------------------------------------------------|
||----0---------------------------------------------------------------|
||--------------------------------------------------------------------|




    Gtr I
||--------------------------------------------------------------------|
||--------------------------------------------------------------------|
||--------------------------------------------------------------------|
||--------------------------------------------------------------------|
||--------------------------------------------------------------------|
||--------------------------------------------------------------------|
|
|   Gtr II
||------8------8------8------------8------8------8--------------------|
||--------10-----10------------------10-----10------------------------|
||-----------9------9-------------------9------9----------------------|
||--------------------------------------------------------------------|
||--------------------------------------------------------------------|
||--------------------------------------------------------------------|






    Gtr I
||--------------------------------------------------------------------|
||--------------------------------------------------------------------|
||--------------------------------------------------------------------|
||--------------------------------------------------------------------|
||--------------------------------------------------------------------|
||--------------------------------------------------------------------|
|
|   Gtr II
||--------------------------------------------------------------------|
||--------------------------------------------------------------------|
||----------10-------10-----------------10-------10-------------------|
||-------12-------12----12-----------12-------12----12----------------|
||----12-------12-----------------13-------13-------------------------|
||--------------------------------------------------------------------|



 Gtr I
||--------------------------------------------------------------------|
||--------------------------------------------------------------------|
||--------------------------------------------------------------------|
||--------------------------------------------------------------------|
||--------------------------------------------------------------------|
||--------------------------------------------------------------------|
|
|   Gtr II
||------8------8------8------------8------8------8--------------------|
||--------10-----10------------------10-----10------------------------|
||-----------9------9-------------------9------9----------------------|
||--------------------------------------------------------------------|
||----0---------------------------------------------------------------|
||--------------------------------------------------------------------|




    Gtr I
||--------------------------------------------------------------------|
||--------------------------------------------------------------------|
||--------------------------------------------------------------------|
||--------------------------------------------------------------------|
||--------------------------------------------------------------------|
||--------------------------------------------------------------------|
|
|   Gtr II
||------8------8------8------------8------8------8--------------------|
||--------10-----10------------------10-----10------------------------|
||-----------9------9-------------------9------9----------------------|
||--------------------------------------------------------------------|
||--------------------------------------------------------------------|
||--------------------------------------------------------------------|






    Gtr I
||--------------------------------------------------------------------|
||--------------------------------------------------------------------|
||--------------------------------------------------------------------|
||--------------------------------------------------------------------|
||--------------------------------------------------------------------|
||--------------------------------------------------------------------|
|
|   Gtr II
||--------------------------------------------------------------------|
||--------------------------------------------------------------------|
||----------9-------9-----------------9-------9-----------------------|
||-------10------10---10-----------10------10---10--------------------|
||----12------12----------------12------12----------------------------|
||--------------------------------------------------------------------|


    Gtr I
||--------------------------------------------------------------------|
||--------------------------------------------------------------------|
||--------------------------------------------------------------------|
||--------------------------------------------------------------------|
||--------------------------------------------------------------------|
||--------------------------------------------------------------------|
|
|   Gtr II
||--------------------------------------------------------------------|
||--------------------------------------------------------------------|
||----------10-------10-----------------10-------10-------------------|
||-------12-------12----12-----------12-------12----12----------------|
||----12-------12-----------------13-------13-------------------------|
||--------------------------------------------------------------------|



2:06
Pré-Chorus 


    Gtr I
||--------------------------------------------------------------------|
||--------------------------------------------------------------------|
||--------------------------------------------------------------------|
||---------------------------------5-5-5-5-5-5-5-5-1010101010101010---|
||-7-7-7-7-7-7-7-7-5-5-5-5-5-5-5-5-3-3-3-3-3-3-3-3-8-8-8-8-8-8-8-8----|
||-5-5-5-5-5-5-5-5-3-3-3-3-3-3-3-3------------------------------------|
|
|   Gtr II
||--------------------------------------------------------------------|
||--------------------------------------------------------------------|
||--------------------------------------------------------------------|
||---------------------------------5-5-5-5-5-5-5-5-1010101010101010---|
||-7-7-7-7-7-7-7-7-5-5-5-5-5-5-5-5-3-3-3-3-3-3-3-3-8-8-8-8-8-8-8-8----|
||-5-5-5-5-5-5-5-5-3-3-3-3-3-3-3-3------------------------------------|


    Gtr I
||--------------------------------------------------------------------|
||--------------------------------------------------------------------|
||--------------------------------------------------------------------|
||----12-12-12-12-12-12-12-12-12-12-12-12-12-12-12-12-----------------|
||----10-10-10-10-10-10-10-10-10-10-10-10-10-10-10-10-----------------|
||--------------------------------------------------------------------|
|
|   Gtr II
||--------------------------------------------------------------------|
||--------------------------------------------------------------------|
||--------------------------------------------------------------------|
||----12-12-12-12-12-12-12-12-12-12-12-12-12-12-12-12-----------------|
||----10-10-10-10-10-10-10-10-10-10-10-10-10-10-10-10-----------------|
||--------------------------------------------------------------------|
  


2:15
Refrain 

                                                              ______
    Gtr I                                                           |
||----------------------------------------------------------------| | 
||----------------------------------------------------------------| |  
||----------------------------------------------------------------| |  
||--------------------10-10-10-10---------------------------------| |  
||----7-7-7-7-7-7-7-7-8--8--8--8--10-10-10-10---------------------| |  
||----5-5-5-5-5-5-5-5-------------8--8--8--8----------------------| |  
|                                                                   |
|   Gtr II                                                          |
||----------------------------------------------------------------| |  
||----------------------------------------------------------------| |  
||----------------------------------------------------------------| |  
||----------------------------------------------------------------| |  
||----------------------------------------------------------------| |  
||----------------------------------------------------------------| |  
											  |
											  |x2
											  |
    Gtr I										  |
||----------------------------------------------------------------| |  
||----------------------------------------------------------------| |  
||----------------------------------------------------------------| |  
||----12-12-12-12-12-12-12-12--9-9-9-9----------------------------| |  
||----10-10-10-10-10-10-10-10--7-7-7-7-5-5-5-5--------------------| |  
||-------------------------------------3-3-3-3--------------------| |  
|											  |
|   Gtr II										  |
||----------------------------------------------------------------| |
||----------------------------------------------------------------| |  
||----------------------------------------------------------------| |  
||----------------------------------------------------------------| |  
||----------------------------------------------------------------| |  
||----------------------------------------------------------------| |  
										   _____|

 
2:28
Bridge

   Gtr I
||--------------------------------------------------------------------|
||--------------------------------------------------------------------|
||--------------------------------------------------------------------|
||----7-7-7-7-7-7-7-7-7-7-7-7-7-7-7-7-7-7-7-7-7-7-7-7-----------------|
||----7-7-7-7-7-7-7-7-7-7-7-7-7-7-7-7-7-7-7-7-7-7-7-7-----------------|
||----5-5-5-5-5-5-5-5-5-5-5-5-5-5-5-5-5-5-5-5-5-5-5-5-----------------|
|
|   Gtr II
||--------------------------------------------------------------------|
||--------------------------------------------------------------------|
||--------------------------------------------------------------------|
||--------------------------------------------------------------------|
||--------------------------------------------------------------------|
||--------------------------------------------------------------------|




    Gtr I
||--------------------------------------------------------------------|
||--------------------------------------------------------------------|
||--------------------------------------------------------------------|
||----7-7-7-7-7-7-7-7-7-7-7-7-7-7-7-7-7-7-7-7-7-7-7-7-----------------|
||----7-7-7-7-7-7-7-7-7-7-7-7-7-7-7-7-7-7-7-7-7-7-7-7-----------------|
||----5-5-5-5-5-5-5-5-5-5-5-5-5-5-5-5-5-5-5-5-5-5-5-5-----------------|
|
|   Gtr II
||--------------------8-8-------------8-8-----8-8---------------------|
||-----------------10--------------10------10------10-----------------|
||--------------------------------------------------------------------|
||--------------------------------------------------------------------|
||--------------------------------------------------------------------|
||--------------------------------------------------------------------|





    Gtr I
||--------------------------------------------------------------------|
||--------------------------------------------------------------------|
||--------------------------------------------------------------------|
||----7-7-7-7-7-7-7-7-7-7-7-7-7-7-7-7-7-7-7-7-7-7-7-7-----------------|
||----7-7-7-7-7-7-7-7-7-7-7-7-7-7-7-7-7-7-7-7-7-7-7-7-----------------|
||----5-5-5-5-5-5-5-5-5-5-5-5-5-5-5-5-5-5-5-5-5-5-5-5-----------------|
|
|   Gtr II
||----8-7-------------7-7-----7-7-----8-8-----------------------------|
||------------------9-------9-------9--------------10-----------------|
||--------------------------------------------------------------------|
||--------------------------------------------------------------------|
||--------------------------------------------------------------------|
||--------------------------------------------------------------------|




    Gtr I
||--------------------------------------------------------------------|
||--------------------------------------------------------------------|
||--------------------------------------------------------------------|
||----10-10-10-10-------------9-9-9-9-9-9-9-9-10-10-10-10-12-12-12-12-|
||----8--8--8--8--10-10-10-10-7-7-7-7-7-7-7-7-8--8--8--8--10-10-10-10-|
||----------------8--8--8--8------------------------------------------|
|
|   Gtr II
||----8--8--------8--8--------8-7-------------7-7---------7--7--------|
||-------------10----------10---------------9----------9------------9-|
||--------------------------------------------------------------------|
||--------------------------------------------------------------------|
||--------------------------------------------------------------------|
||--------------------------------------------------------------------|
2:47
Quand j'y pense 2 minutes conscient et lucide, c'est compliqué mais


    Gtr I
||--------------------------------------------------------------------|
||--------------------------------------------------------------------|
||--------------------------------------------------------------------|
||------------------------------------10101010101010101010101010101010|
||----7-7-7-7-7-7-7-7-7-7-7-7-7-7-7-7-8-8-8-8-8-8-8-8-8-8-8-8-8-8-8-8-|
||----5-5-5-5-5-5-5-5-5-5-5-5-5-5-5-5---------------------------------|
|
|   Gtr II
||----5-5-5-5-5-5-5-5-5-5-5-5-5-5-5-5-5-5-5-5-5-5-5-5-5-5-5-5-5-5-5-5-|
||----5-5-5-5-5-5-5-5-5-5-5-5-5-5-5-5-5-5-5-5-5-5-5-5-5-5-5-5-5-5-5-5-|
||--------------------------------------------------------------------|
||--------------------------------------------------------------------|
||--------------------------------------------------------------------|
||--------------------------------------------------------------------|


possible. Les imbéciles se comptent encore par

    Gtr I
||--------------------------------------------------------------------|
||--------------------------------------------------------------------|
||--------------------------------------------------------------------|
||--------------------------------------------------------------------|
||----7-7-7-7-7-7-7-7-7-7-7-7-7-7-7-7-7-7-7-7-7-7-7-7-----------------|
||----5-5-5-5-5-5-5-5-5-5-5-5-5-5-5-5-5-5-5-5-5-5-5-5-----------------|
|
|   Gtr II
||--------------------------------------------------------------------|
||--------------------------------------------------------------------|
||--------------------------------------------------------------------|
||--------------------------------------------------------------------|
||--------------------------------------------------------------------|
||--------------------------------------------------------------------|

   ...Millions, mais la raison gagne du

    Gtr I
||--------------------------------------------------------------------|
||--------------------------------------------------------------------|
||--------------------------------------------------------------------|
||--------------------------------------------------------------------|
||----10-10-10-10-10-10-10-10-10-10-10-10-10-10-10-10-10-10-10--------|
||----8--8--8--8--8--8--8--8--8--8--8--8--8--8--8--8--8--8--8---------|
|
|   Gtr II
||--------------------------------------------------------------------|
||--------------------------------------------------------------------|
||--------------------------------------------------------------------|
||--------------------------------------------------------------------|
||--------------------------------------------------------------------|
||--------------------------------------------------------------------|



terrain. Les serviteurs se comptent encore par ...

Gtr I
||--------------------------------------------------------------------|
||--------------------------------------------------------------------|
||--------------------------------------------------------------------|
||--------------------------------------------------------------------|
||----7-7-7-7-7-7-7-7-7-7-7-7-7-7-7-7-7-7-7-7-7-7-7-7-----------------|
||----5-5-5-5-5-5-5-5-5-5-5-5-5-5-5-5-5-5-5-5-5-5-5-5-----------------|
|
|   Gtr II
||--------------------------------------------------------------------|
||--------------------------------------------------------------------|
||--------------------------------------------------------------------|
||--------------------------------------------------------------------|
||--------------------------------------------------------------------|
||--------------------------------------------------------------------|



...millions, mais la discorde gagne du 

Gtr I
||--------------------------------------------------------------------|
||--------------------------------------------------------------------|
||--------------------------------------------------------------------|
||--------------------------------------------------------------------|
||----10-10-10-10-10-10-10-10-10-10-10-10-10-10-10-10-10-10-10--------|
||----8--8--8--8--8--8--8--8--8--8--8--8--8--8--8--8--8--8--8---------|
|
|   Gtr II
||--------------------------------------------------------------------|
||--------------------------------------------------------------------|
||--------------------------------------------------------------------|
||--------------------------------------------------------------------|
||--------------------------------------------------------------------|
||--------------------------------------------------------------------|


terrain. J'espère un peu plus loin briser

Gtr I
||--------------------------------------------------------------------|
||--------------------------------------------------------------------|
||--------------------------------------------------------------------|
||------------------------------------5-5-5-5-5-5-5-5-----------------|
||----7-7-7-7-7-7-7-7-5-5-5-5-5-5-5-5-3-3-3-3-3-3-3-3-----------------|
||----5-5-5-5-5-5-5-5-3-3-3-3-3-3-3-3---------------------------------|
|
|   Gtr II
||--------------------------------------------------------------------|
||--------------------------------------------------------------------|
||--------------------------------------------------------------------|
||------------------------------------5-5-5-5-5-5-5-5-----------------|
||----7-7-7-7-7-7-7-7-5-5-5-5-5-5-5-5-3-3-3-3-3-3-3-3-----------------|
||----5-5-5-5-5-5-5-5-3-3-3-3-3-3-3-3---------------------------------|



la honte qui me retient.

    Gtr I
||--------------------------------------------------------------------|
||--------------------------------------------------------------------|
||--------------------------------------------------------------------|
||----10-10-10-10-10-10-10-10-12-12-12-12-12-12-12-12-----------------|
||----8--8--8--8--8--8--8--8--10-10-10-10-10-10-10-10-----------------|
||--------------------------------------------------------------------|
|
|   Gtr II
||--------------------------------------------------------------------|
||--------------------------------------------------------------------|
||--------------------------------------------------------------------|
||----10-10-10-10-10-10-10-10-12-12-12-12-12-12-12-12-----------------|
||----8--8--8--8--8--8--8--8--10-10-10-10-10-10-10-10-----------------|
||--------------------------------------------------------------------|





    Gtr I
||--------------------------------------------------------------------|
||--------------------------------------------------------------------|
||--------------------------------------------------------------------|
||----12-12-12-12-12-12-12-12-----------------------------------------|
||----10-10-10-10-10-10-10-10-----------------------------------------|
||--------------------------------------------------------------------|
|
|   Gtr II
||--------------------------------------------------------------------|
||--------------------------------------------------------------------|
||--------------------------------------------------------------------|
||----12-12-12-12-12-12-12--------------------------------------------|
||----10-10-10-10-10-10-10-10-----------------------------------------|
||--------------------------------------------------------------------|


3:18
Refrain II

    Gtr I
||----------------------------------------------------------------| 
||----------------------------------------------------------------| 
||----------------------------------------------------------------| 
||--------------------10-10-10-10---------------------------------| 
||----7-7-7-7-7-7-7-7-8--8--8--8--10-10-10-10---------------------| 
||----5-5-5-5-5-5-5-5-------------8--8--8--8----------------------| 
|                                                                  
|   Gtr II
||----8-8-------------8--8--------8--8----------------------------| 
||-----------------10----------10----------10---------------------|  
||----------------------------------------------------------------| 
||----------------------------------------------------------------|
||----------------------------------------------------------------| 
||----------------------------------------------------------------| 




    Gtr I
||----------------------------------------------------------------|  
||----------------------------------------------------------------|  
||----------------------------------------------------------------| 
||----12-12-12-12-12-12-12-12--9-9-9-9----------------------------|  
||----10-10-10-10-10-10-10-10--7-7-7-7-5-5-5-5--------------------|  
||-------------------------------------3-3-3-3--------------------| 
|
|   Gtr II
||----8--7---------------------7-7-----7-7------------------------|
||--------------------------9--------9-------9--------------------|
||----------------------------------------------------------------|
||----------------------------------------------------------------|
||----------------------------------------------------------------|
||----------------------------------------------------------------|




Gtr I
||----------------------------------------------------------------| 
||----------------------------------------------------------------| 
||----------------------------------------------------------------| 
||--------------------10-10-10-10---------------------------------| 
||----7-7-7-7-7-7-7-7-8--8--8--8--10-10-10-10---------------------| 
||----5-5-5-5-5-5-5-5-------------8--8--8--8----------------------| 
|                                                                  
|   Gtr II
||----8-8-------------8--8--------8--8----------------------------| 
||-----------------10----------10----------10---------------------|  
||----------------------------------------------------------------| 
||----------------------------------------------------------------|
||----------------------------------------------------------------| 
||----------------------------------------------------------------| 




    Gtr I
||----------------------------------------------------------------|  
||----------------------------------------------------------------|  
||----------------------------------------------------------------| 
||----12-12-12-12-12-12-12-12--9-9-9-9----------------------------|  
||----10-10-10-10-10-10-10-10--7-7-7-7-5-5-5-5--------------------|  
||-------------------------------------3-3-3-3--------------------| 
|
|   Gtr II
||----8--7---------------------7-7-----7-7------------------------|
||--------------------------9--------9-------9--------------------|
||----------------------------------------------------------------|
||----------------------------------------------------------------|
||----------------------------------------------------------------|
||----------------------------------------------------------------|


   
3:31

    Gtr I
||--------------------------------------------------------------------|
||--------------------------------------------------------------------|
||--------------------------------------------------------------------|
||--------------------10-10-10-10-------------------------------------|
||----7-7-7-7-7-7-7-7-8--8--8--8--10-10-10-10-------------------------|
||----5-5-5-5-5-5-5-5-------------8--8--8--8--------------------------|
|
|   Gtr II
||----8--8--8--8--8--8--8--8--8--8--8--8--8--8--8---------------------|
||---10-10-10-10-10-10-10-10-10-10-10-10-10-10-10-10------------------|
||--------------------------------------------------------------------|
||--------------------------------------------------------------------|
||--------------------------------------------------------------------|
||--------------------------------------------------------------------|




    Gtr I
||--------------------------------------------------------------------|
||--------------------------------------------------------------------|
||--------------------------------------------------------------------|
||----12-12-12-12-12-12-12-12--9-9-9-9--------------------------------|
||----10-10-10-10-10-10-10-10--7-7-7-7-5-5-5-5------------------------|
||-------------------------------------3-3-3-3------------------------|
|
|   Gtr II
||-----8--7--7--7--7--7--7--7--7--7--7--7--7--------------------------|
||-----------9--9--9--9--9--9--9--9--9--9--9--9-----------------------|
||--------------------------------------------------------------------|
||--------------------------------------------------------------------|
||--------------------------------------------------------------------|
||--------------------------------------------------------------------|




    Gtr I
||--------------------------------------------------------------------|
||--------------------------------------------------------------------|
||--------------------------------------------------------------------|
||--------------------10-10-10-10-------------------------------------|
||----7-7-7-7-7-7-7-7-8--8--8--8--10-10-10-10-------------------------|
||----5-5-5-5-5-5-5-5-------------8--8--8--8--------------------------|
|
|   Gtr II
||----8--8--8--8--8--8--8--8--8--8--8--8--8--8--8---------------------|
||---------10-10-10-10-10-10-10-10-10-10-10-10-10-10------------------|
||--------------------------------------------------------------------|
||--------------------------------------------------------------------|
||--------------------------------------------------------------------|
||--------------------------------------------------------------------|



  
     Gtr I
||--------------------------------------------------------------------|
||--------------------------------------------------------------------|
||--------------------------------------------------------------------|
||----12-12-12-12-12-12-12-12--9-9-9-9--------------------------------|
||----10-10-10-10-10-10-10-10--7-7-7-7-5-5-5-5------------------------|
||-------------------------------------3-3-3-3------------------------|
|
|   Gtr II
||-----8--7--7--7--7--7--7--7--7--7--7--7--7--7--7--------------------|
||-----------9--9--9--9--9--9--9--9--9--9--9--9-----------------------|
||--------------------------------------------------------------------|
||--------------------------------------------------------------------|
||--------------------------------------------------------------------|
||--------------------------------------------------------------------|





    Gtr I
||---------------------------------|
||---------------------------------|
||---------------------------------|
||----7--------7-------------------|
||----7--------7----let ring-------|
||----5--------5-------------------|
|
|   Gtr II
||----8--------8-------------------|
||---10-------10----let ring-------|
||---------------------------------|
||---------------------------------|
||---------------------------------|
||---------------------------------|






Добавлено: 29.05.2012
Другие материалы по этой песне:

Страница создана 29.05.2012
http://primanota.ru/les-vulgaires-machins/compter-les-corps-chords.htm
Привет, Гость.
Предлагаем пройти революционный курс по гитаре.
Подарок от PrimaNota.Ru, забирай!