PrimaNota.ru - самый крупный в мире бесплатный архив песенных текстов, аккордов, табулатур и нот


Les Trois Accords - Youri - текст песни, таба, видео

Регистрация Запомнить меня
Войти через:  Facebook Google Twitter Vk Yandex Mail.ru

Les Trois Accords - Youri - текст песни, таба, видео

Печатать
Просмотров: 150
Уроки эстрадного вокала в Санкт-Петербурге
-------------------------------------------------------------------------------
                             YOURI - Les Trois Accords
-------------------------------------------------------------------------------
Tabbed by: Barry Miles
Email: shoebox_of_lies@hotmail.com

INTRO

  G#5        A#5       F#5     C#5
e|-----------------------------------------|
B|-----------------------------------------|
G|-(3)-3-3-----3-3-3-----6-6---------------|
D|---------6-3-------6---------6-6-6-6-4-3-|
A|---------------------4-----4-------------|
E|-----------------------------------------|

VERSE/COUPLETS

            G#5             A#5          F#5           C#5
e|-------------------------------------------------------------------|
B|-------------------------------------------------------------------|
G|-------------------------------------------------------------------|
D|-----------------------------------------------------6-(6)-(6)-(6)-|
A|----------6---------------/8---------11\4-(4)-(4)-(4)--------------|
E|-------------------------------------------------------------------|
 Quand le frimas colle aux fenêtres, Je revois ton numéro

        G#5                A#5         F#5                C#5
e|----------------------------------------------------------------------|
B|----------------------------------------------------------------------|
G|----------------------------------------------------------------------|
D|--------------------------------------------------------6-(6)-(6)-(6)-|
A|------6-------------------/8-------11\4-(4)-(4)-(4)-(4)---------------|
E|----------------------------------------------------------------------|
  Je souhaite qu'il y ait tempête, Ou je souffle dans le hublot

e|-----------------------------------------------------------------------|
B|-----------------------------------------------------------------------|
G|------(3)-3--3---------3--3--3---------6---6---------------------------|
D|---------------6--3-------------6----------------------6--6-6-6-6-4-3--|
A|-----------------------------------4------------4----------------------|
E|-----------------------------------------------------------------------|
  Quand je le vois apparaître, Je me sens un peu plus au chaud

e|-----------------------------------------------------------------------|
B|-----------------------------------------------------------------------|
G|----------------3--3---------3--3-3---------6---6----------------------|
D|----------------------6--3-----------6----------------6--6-6-6-6-4-3---|
A|------------6----------------------------4---------4-------------------|
E|-----------------------------------------------------------------------|
  Quand le frimas colle aux fenêtres, Je revois ton numéro

PRECHORUS/PRÉREFRAIN

   A#5         C#5         F#5         C#5
e|------------------------------------------------|
B|------------------------------------------------|
G|--3-3-3-3-3-------------------------------------|
D|-----------6-3-3-3-3-3-3-------------6-6-6-6-6--|
A|-------------------------4-4-4-4-4-4------------|
E|------------------------------------------------|
  Le rebours à zéro, Accroupi dans la navette

         A#5           C#5             F#5          C#5
e|----------------------------------------------------------|
B|----------------------------------------------------------|
G|-------3-3-3-3-3-3----------------------------------------|
D|-------------------6-3-3-3-3-3-3-3-3--------------6-6-6-6-|
A|-------------------------------------4-4-4-4-4-4----------|
E|----------------------------------------------------------|
  La tête pressée dans l'étau, Le ciel brûle et toi avec
  
  P.M.-------------------------------------------------------------------|
e|------------------------------------------------------------------------|
B|---7---7---7---7---7---7---7---7---7---6---6---6---6---6---6---6---6----|
G|-----6---6---6---6---6---6---6---6---6---6---6---6---6---6---6---6---6--|
D|------------------------------------------------------------------------|
A|------------------------------------------------------------------------|
E|------------------------------------------------------------------------|
  La traînée laisse sa trace, Derrière l'engin qui revient
  
  P.M.-------------------------------------------------------------------|
e|------------------------------------------------------------------------|
B|---7---7---7---7---7---7---7---7---7---6---6---6---6---6---6---6---6----|
G|-----6---6---6---6---6---6---6---6---6---6---6---6---6---6---6---6---6--|
D|------------------------------------------------------------------------|
A|------------------------------------------------------------------------|
E|------------------------------------------------------------------------|
  Il faut beaucoup d'espace,   Pour retrouver son chemin

e|-------------------------------------------------------|
B|-------------------------------------------------------|
G|-------------------------------------------------------|
D|---4-4-4-4-4-4-4-4-4-4-4-4-4-4-6-6-6-6-6-6-6-6-6-6-6-6-|
A|---4-4-4-4-4-4-4-4-4-4-4-4-4-4-3-3-3-3-3-3-3-3-3-3-3-3-|
E|---2-2-2-2-2-2-2-2-2-2-2-2-2-2-4-4-4-4-4-4-4-4-4-4-4-4-|
  Et j'amorce la descente, Le cockpit dans la gorge

e|-------------------------------------------------------------|
B|-------------------------------------------------------------|
G|-6-6-6-6-6-6-6-6-6-6-6-6-6-6-6-6-6-6-6-6-6-6-6-6-6-6-6-6-6-6-|
D|-6-6-6-6-6-6-6-6-6-6-6-6-6-6-6-6-6-6-6-6-6-6-6-6-6-6-6-6-6-6-|
A|-4-4-4-4-4-4-4-4-4-4-4-4-4-4-4-4-4-4-4-4-4-4-4-4-4-4-4-4-4-4-|
E|-------------------------------------------------------------|
  Et la plaque incandescente, L'atmosphère aux premières loges

CHORUS/REFRAIN
               C#5                 A#5     G#5
e|-------------------------------------------------|
B|-------------------------------------------------|
G|-------------10-10-6-6-10-10-6-6-3-3-------------|
D|-------------x--x--x-x-x--x--x-x-----6-6-3-3-----|
A|-------------8--8--4-4-8--8--4-4-------------6-6-|
E|-------------------------------------------------|
  Mais sache que, Sous son casque, casque, Youri sourit

e|--------------------------------------|\
B|--------------------------------------| \
G|--10-10-6-6-10-10-6-6-3-3-------------|  \X3
D|--x--x--x-x-x--x--x-x-----6-6-3-3-----|  /
A|--8--8--4-4-8--8--4-4-------------6-6-| /
E|--------------------------------------|/
  Sous son casque, casque, Youri sourit

POST-CHORUS/APRES-REFRAIN

e|-4-4-4-4-4-4------------------------------------------------------|
B|-x-x-x-x-x-x-6-7-7-7-7-7-7-7-7-7-7-7-7-7-7-7-7-6-6-6-6-6-6-6-6-6--|
G|-6-6-6-6-6-6-6-6-6-6-6-6-6-6-6-6-x-x-x-x-x-x-x-x-x-x-x-x-x-x-x-x--|
D|-4-4-4-4-4-4-4-4-4-4-4-4-4-4-4-4-6-6-6-6-6-6-6-6-6-6-6-6-6-6-6-6--|
A|---------------------------------4-4-4-4-4-4-4-4-4-4-4-4-4-4-4-4--|
E|------------------------------------------------------------------|

INTRO X2

VERSE/COUPLET 2

e|----------------------------------------------------------|
B|----------------------------------------------------------|
G|----------------------------------------------------------|
D|--------------------------------------------6-(6)-(6)-(6)-|
A|--------6---------8-------11\-4-(4)-(4)-(4)---------------|
E|----------------------------------------------------------|
  Oeil en arrêt sur image, Une comète dans un parage

e|--------------------------------------------------------------|
B|--------------------------------------------------------------|
G|-----5------------6---------------\3-------------/10----------|
D|--------------------------------------------------------------|
A|-----6------------8---------------\4--------------------------|
E|--------------------------------------------------9-9-9-9-9-9-|
  En orbite dans ton visage, Pupille en surplace à la nage

PRECHORUS/PRÉREFRAIN

CHORUS/REFRAIN

POST-CHORUS/APRES-REFRAIN

INTRO

OUTRO

e|------------------------|
B|------------------------|
G|-------6------6------6--|
D|-6-----6-8----6-4----6--|
A|-6-----4-8----4-4----4--|
E|-4-------6------2-------|

  P.M.-------------------------------------------------------------------|
e|------------------------------------------------------------------------|
B|---7---7---7---7---7---7---7---7---7---6---6---6---6---6---6---6---6----|
G|-----6---6---6---6---6---6---6---6---6---6---6---6---6---6---6---6---6--|
D|------------------------------------------------------------------------|
A|------------------------------------------------------------------------|
E|------------------------------------------------------------------------|
       Et j'amorce la descente, Le cockpit dans la gorge, et la plaque

Добавлено: 21.02.2012
Другие материалы по этой песне:
  • Аккорды и текст

Страница создана 21.02.2012
http://primanota.ru/les-trois-accords/youri-chords.htm
Привет, Гость.
Предлагаем пройти революционный курс по гитаре.
Подарок от PrimaNota.Ru, забирай!